» » »

Smashing Pumpkins, Ava Adore Bass tabs (ver.2)

Artists:  A B C D E F G H I J K L M N O P Q R S T U V W X Y Z # 

Ava Adore Bass tabs (ver.2)

Smashing Pumpkins Tabs
 Rating:
4.4/5 (7 votes)
Ava Adore lessons Tabs too difficult? Try these video lessons and learn fast
                Okay, so this is my first tab, so don't go nuts all over me if it's wrong! Please rate! 
numbers along the bottom are the timing, just in case you need it!

It's all in Standard Tuning


Intro and Verse
G|------------------|
D|------------------|
A|------------------|
E|-1-1----11-1-4----|
   1+2+3+4+1+2+3+4+

Fill
G|------------------|
D|------------------|
A|-6---6------------|
E|---------44-4-4---|
   1+2+3+4+1+2+3+4+

Chorus and Guitar Solo
G-------------------------------------------------------------------|
D|------------------------------------------------------------------|
A|-----------------33333333333333334444444411111111-----------------|
E|-4444444444444444--------------------------------4444444444444444-|
   1+2+3+4+1+2+3+4+1+2+3+4+1+2+3+4+1+2+3+4+1+2+3+4+1+2+3+4+1+2+3+4+

Tiny After Chorus Fill
G|------------------|
D|------------------|
A|-1-1-1-1-1-1-1-1--|
E|------------------|
   1+2+3+4+1+2+3+4+

Bridge
G|----------------------------------|
D|----------------------------------|
A|-----------------1-1-1-1-1-1-1-1--|
E|-4-4-4-4-4-4-4-4------------------|
   1+2+3+4+1+2+3+4+1+2+3+4+1+2+3+4+

Song Order:
Intro and Verse x10
Fill
Verse
Fill
Chorus
Verse x8
Fill
Verse
Fill
Chorus x2
Tiny After Chorus Fill
*There's a pause from the bass here*
Verse x2
Fill
Chorus x3
Tiny After Chrous Fill
Bridge
Verse x4
Fill + Verse x5
Verse until fade out
            
Submit corrections

comments powered by Disqus
↑ Back to top | Smashing Pumpkins Bass for Ava Adore. Lyrics for acoustic guitar and electric guitar. Tablatures and chords are parodies/interpretations of the original songs. You may use it for private study, scholarship, research or language learning purposes only