>
 >
Ingat Ka 3

Ingat Ka 3 Guitar Tabs

Silent Sanctuary - Ingat Ka 3 chords, tabs, tablatures, lyrics

Guitar lessons | Add/correct | Request | Top 50 tabs Artists:  A B C D E F G H I J K L M N O P Q R S T U V W X Y Z 0-9

Ingat Ka 3 Guitar Tabs – Silent Sanctuary

CD, Sheet music, Poster

Do you like Ingat Ka 3? Share with your friends now
ChordsChords v2TabsTabs v2Tabs v3Ukulele
INGAT KA by SILENT SANCTUARY

INTRO:

e|---------------------------------------------------------------|
B|---------------------------------------------------------------|
G|--------------------------------------1-----1-----1-----1------|
D|--4-4-4-4-4-4-4-4-4-4-4-4-4-4-4-4-------4-----4-----4-----4----|
A|--2-2-2-2-2-2-2-2-1-1-1-1-1-1-1-1---2-----2-----2-----2--------|
E|---------------------------------------------------------------|

e|--------------------------------------4-2---4-2---4-----|
B|--------------------------------------------------------|
G|------------------------------------4-----4-----4---4---|
D|--4-4-4-4-4-4-4-4-4-4-4-4-4-4-4-4-----------------------|
A|--2-2-2-2-2-2-2-2-1-1-1-1-1-1-1-1-----------------------|
E|--------------------------------------------------------|

e|----------x--------|
B|--4-4-4-4-x-2------|
G|--4-4-4-4-x---3----|
D|--2-2-2-2-x-----4--|
A|----------x--------| 
E|----------x--------|

CHORDS:E-B-E-B-F#
       G#m-F#-E
       C#m-D#m-E-F#
         B-B7-G#m-F#m-E 2x
       G#m-F#-E 2x

1min:19sec
e|------------------------------------------------------------|
B|-----------------------------------------------------0------|
G|-------------------------------------1-----1-----1-----1----|
D|--4-4-4-4-4-4-4-4-4-4-4-4-4-4-4-4------4-----4-----4-----4--|
A|--2-2-2-2-2-2-2-2-1-1-1-1-1-1-1-1--2-----2-----2------------|
E|------------------------------------------------------------|

e|-------------------------------------4-2---4-2---4-2--------|
B|-------------------------------------------------------4----|
G|-----------------------------------4-----4-----4-------4----|
D|--4-4-4-4-4-4-4-4-4-4-4-4-4-4-4-4----------------------2----|
A|--2-2-2-2-2-2-2-2-1-1-1-1-1-1-1-1---------------------------|
E|------------------------------------------------------------|

ADLIB:2min:34sec
e|----------------------7-7-x-7-7-----------9-------14~-14-12-11-12-11-9-9---|
B|--9~-11-12-11---------5-5-x-5-5--9~-11-12---12-11--------------------------|
G|--------------11\6-8~------------------------------------------------------|
D|---------------------------------------------------------------------------|
A|---------------------------------------------------------------------------|
E|------------------------------------------------------14-12-11-12-11-9-9---|

e|--11p9\7h9/9-9-12~-12-14~--------------------------------------------------|
B|---------------------------------------------------------------------------|
G|---------------------------------------------------------------------------|
D|---------------------------------------------------------------------------|
A|---------------------------------------------------------------------------|
E|---------------------------------------------------------------------------|


| /  slide up
| \  slide down
| h  hammer-on
| p  pull-off
| ~  vibrato
| +  harmonic
| x  Mute note
===============================================================================





Comments


Popular Silent Sanctuary tabs & chords
Amakakeru Ryu No Hirameki Chords
Hay Naku 1 Chords
Ikaw Lamang 1 Chords
Masanay Ka Muna Chords
Nagtahan Chords
Summer Song Chords
Wala Na Chords
Kismet 3 Tabs
Meron Nang Iba 1 Tabs
Wala Na Ukulele


Song lyrics



↑ Back to top | Tablatures and chords are parodies/interpretations of the original songs. You may use it for private study, scholarship, research or language learning purposes only
© 2014 AZChords.com Contact us | Privacy policy | DMCA | Add/correct tabs | Request tabs | Top 50 tabs