» » »

Silent Sanctuary, Ikaw Lamang Bass tabs (ver.1)

Artists:  A B C D E F G H I J K L M N O P Q R S T U V W X Y Z # 

Ikaw Lamang Bass tabs (ver.1)

Silent Sanctuary Tabs
 Rating:
4/5 (7 votes)
Ikaw Lamang lessons Tabs too difficult? Try these video lessons and learn fast
1
                Silent Sanctuary
90% correct

Intro (cello part):
|-----------------------------------------------------------------|
|-7-7-7-----------7-7-7-------------------------------------------|
|-------7-7-7-7-7-------7-7-7-7-7-9-9-9-----------9-9-9-----------|
|---------------------------------------9-9-9-9-9-------9-9-9-9-9-|

Verse 1:
|-----------------------------------------------------------------|
|-7-7-7-----------7-7-7-------------------------------------------|
|-------7-7-7-7-7-------7-7-7-7-7-9-9-9-----------9-9-9-----------|
|---------------------------------------9-9-9-9-9-------9-9-9-9-9-|

|---------------------------------------------------------|
|-------------------------------------------------4-4/6-4-|
|-5-5-5-5-5-5-5-5-5-5-5-5-5-5-5-5---------------4---------|
|---------------------------------5-5-5-5-5-5-2-----------|

|---------------------------------------------------------|
|-------------------------------------------------4-4/6-4-|
|-5-5-5-5-5-5-5-5-5-5-5-5-5-5-5-5---------------4---------|
|---------------------------------5-5-5-5-5-5-2-----------|

Refrain:
|--------------------------------------------------------------------|
|--------------------------------------------------------------------|
|--------------------------------------------------------------------|
|-1-1-1-1-1-1-1-1-1-1-1-1-1-1-1-1-0-0-0-0-0-0-0-0-0-0-0-0-0--0-0-3-1-|

|-------------------------------------------------------|
|-------------------------------2-2-2-2-2-2-2-2-2-2-2-2-|
|-------------------------------------------------------|
|-1-1-1-1-1-1-1-1-1-1-1-1-1-1-1-------------------------|

Chorus:
|---------------------------------------------------------------------------|
|---------------------------------------------------------------------------|
|-----------------------------------------------------------------5-----5---|
|-5-5-5-5-5-5-5-5-2-2-2-2-2-2-2-2-5-5-5-5-5-5-5-5-2-2-2-2-2-2-2-2-----------|

|--------------------------------------------------|
|--------------------------------------------------|
|---------------------------------5-5-5-5-5-5-5-5--|
|-5-5-5-5-5-5-5-5-2-2-2-2-2-2-2-2------------------|

|--------------------------------------------------|
|--------------------------------------------------|
|---------------------------------5-5-5-5-5-5-5-5--|
|-5-5-5-5-5-5-5-5-2-2-2-2-2-2-2-2------------------|

Interlude
|---------------------------------------------------------------------|
|---7---7-------------------------------------------------------------|
|---------0-14-12-11-12-11-9-11-9---0-14/16-14-14-12-0-14/16-14-14-12-|
|-5---5---------------------------------------------------------------|

|-----------------------------------------------------------------------|
|---14------------------------------------------------------------------|
|-0----12-12--14-12-11-12-11-9-11-9---0-14/16-14-14-12-0-14/16-14-14-12-|
|-----------------------------------------------------------------------|

Verse 2:
|--------------------------------------------------------------------|
|--------------------------------------------------------------------|
|-0----------------------------------0-0-0-0-0-0-0-0-----------------|
|--------------------2-2-2-2-2-2-2-2-----------------2-2-2-2-2-2-2-2-|

|-----------------------------------------------------------------|
|-----------------------------------------------------------------|
|-0-0-0-0-0-0-0-0-----------------0-0-0-0-0-0-0-0-----------------|
|-----------------2-2-2-2-2-2-2-2-----------------2-2-2-2-2-2-2-2-|

|---------------------------------------------------------|
|-------------------------------------------------4-4/6-4-|
|-5-5-5-5-5-5-5-5-5-5-5-5-5-5-5-5---------------4---------|
|---------------------------------5-5-5-5-5-5-2-----------|

|---------------------------------------------------------|
|-------------------------------------------------4-4/6-4-|
|-5-5-5-5-5-5-5-5-5-5-5-5-5-5-5-5---------------4---------|
|---------------------------------5-5-5-5-5-5-2-----------|

Refrain:
|--------------------------------------------------------------------|
|--------------------------------------------------------------------|
|--------------------------------------------------------------------|
|-1-1-1-1-1-1-1-1-1-1-1-1-1-1-1-1-0-0-0-0-0-0-0-0-0-0-0-0-0--0-0-3-1-|

|-------------------------------------------------------|
|-------------------------------2-2-2-2-2-2-2-2-2-2-2-2-|
|-------------------------------------------------------|
|-1-1-1-1-1-1-1-1-1-1-1-1-1-1-1-------------------------|

Chorus:
|---------------------------------------------------------------------------|
|---------------------------------------------------------------------------|
|-----------------------------------------------------------------5-----5---|
|-5-5-5-5-5-5-5-5-2-2-2-2-2-2-2-2-5-5-5-5-5-5-5-5-2-2-2-2-2-2-2-2-----------|

|--------------------------------------------------|
|--------------------------------------------------|
|---------------------------------5-5-5-5-5-5-5-5--|
|-5-5-5-5-5-5-5-5-2-2-2-2-2-2-2-2------------------|

|--------------------------------------------------|
|--------------------------------------------------|
|---------------------------------5-5-5-5-5-5-5-5--|
|-5-5-5-5-5-5-5-5-2-2-2-2-2-2-2-2------------------|

Solo:
|--------------------------------------------------------------------|
|--------------------------------------------------------------------|
|--------------------------------------------------------------------|
|-1-1-1-1-1-1-1-1-1-1-1-1-1-1-1-1-0-0-0-0-0-0-0-0-0-0-0-0-0--0-0-3-1-|

|--------------------------------------------------------------------|
|--------------------------------------------------------------------|
|--------------------------------------------------------------------|
|-1-1-1-1-1-1-1-1-1-1-1-1-1-1-1-1-0-0-0-0-0-0-0-0-0-0-0-0-0--0-0-3-1-|

|---------------------------------------------------|
|-------3-------------3-----------------------------|
|---3-------3-----3-------3-------------------------|
|-1---1---1---1-1---1---1---0-7-12-0-7-0-0-7-12-7-0-|

|---------------------------------------------------|
|-------3-------------3-----------------------------|
|---3-------3-----3-------3-------------------------|
|-1---1---1---1-1---1---1---0-7-12-0-7-0-0-7-12-7---|

Chorus:
|---------------------------------------------------------------------------|
|---------------------------------------------------------------------------|
|-----------------------------------------------------------------5-----5---|
|-5-5-5-5-5-5-5-5-2-2-2-2-2-2-2-2-5-5-5-5-5-5-5-5-2-2-2-2-2-2-2-2-----------|

|--------------------------------------------------|
|--------------------------------------------------|
|---------------------------------5-5-5-5-5-5-5-5--|
|-5-5-5-5-5-5-5-5-2-2-2-2-2-2-2-2------------------|

|--------------------------------------------------|
|--------------------------------------------------|
|---------------------------------5----------------|
|-5-5-5-5-5-5-5-5-2-2-2-2-2-2-2-2------------------|
            
Submit corrections

comments powered by Disqus
↑ Back to top | Silent Sanctuary Bass for Ikaw Lamang. Lyrics for acoustic guitar and electric guitar. 1 Tablatures and chords are parodies/interpretations of the original songs. You may use it for private study, scholarship, research or language learning purposes only