>
 >
Ingat Ka 1

Ingat Ka 1 Guitar Tabs

Silent Sanctuary - Ingat Ka 1 chords, tabs, tablatures, lyrics

Guitar lessons | Add/correct | Request | Top 50 tabs Artists:  A B C D E F G H I J K L M N O P Q R S T U V W X Y Z 0-9

Ingat Ka 1 Guitar Tabs – Silent Sanctuary

CD, Sheet music, Poster

Do you like Ingat Ka 1? Share with your friends now
ChordsChords v2TabsTabs v2Tabs v3Ukulele
Album:Kwentong Pag-Ibig/Fuchiang Pag-Ibig

Gtr.Legends:
. - palm muting
~ - let it ring

Gtr.Tuning:Standard(Normal)
e|------------------------|-------------------------|
B|-00000-44444------------|-------------------------|
G|-44444-33333--1---------|-----1------1------1-----|
D|-44444-44444--2-break---|--------4------4------4--|
A|-22222-22222--2---------|---2------2------2-------|
E|------------------------|-------------------------|

e|------------------------|-----4--2---4--2---4--2--|
B|-00000-44444------------|---0------0------0-------|
G|-44444-33333--1---------|-------------------------|
D|-44444-44444--2-break---|-------------------------|
A|-22222-22222--2---------|-------------------------|
E|------------------------|-------------------------|

Verse 1:Huwag kang mag-alala.  Nakaukit na sa isip ko
      e|-------------------------------------------------|
      B|------------------------22222222-----------------|
      G|-1~---------------------44444444-----------------|
      D|-2~---------------------44444444-------------6~--|
      A|-2~---------------------22222222-------------6~--|
      E|---------------------------------------------4~--|

        Nakatitig sa'yong mata nasa langit na ba ako
      e|-------------------------------------------------------|
      B|------------------------22222222-----------------------|
      G|-11111111---------------44444444-----------------------|
      D|-22222222---------------44444444-------------44444444--|
      A|-22222222---------------22222222-------------44444444--|
      E|---------------------------------------------22222222--|

        Minsan lang nagsama sa lunes aalis ka na
      e|-------------------------------------------------------|
      B|-------------------------------------------------------|
      G|-------------------------------------------------------|
      D|-66666666--------------88888888--------------44444444--|
      A|-66666666--------------88888888--------------44444444--|
      E|-44444444--------------66666666--------------22222222--|

        Salamat na rin ikaw ay nakilala...
      e|-------------------------------------------|
      B|-------------------------------------------|
      G|-------------------------------------------|
      D|-6666-----8888----------9999-----11111111--|
      A|-6666-----8888----------9999-----11111111--|
      E|-4444-----6666----------7777------9-9-9-9--|

Chorus:Doon mag-ingat ka...
     e|-----------------------------|
     B|-----------4444--------------|
     G|-4444------3333--------1111--|
     D|-4444------4444--6666--2222--|
     A|-2222------2222--6666--2222--|
     E|-----------------4444--------|

       Huwag masyadong magpupuyat
     e|-------------------------------|
     B|-------------------------------|
     G|-------------------------1111--|
     D|-888-------------666-----2222--|
     A|-666-------------666-----2222--|
     E|-----------------444-----------|

       Inom gamot pag nilalagnat....
     e|-------------------------------------------|
     B|-------------------------------------------|
     G|-------------------------1111--------------|
     D|-888-------------666-----2222--6666--4444--|
     A|-666-------------666-----2222--4444--4444--|
     E|-----------------444-----------------2222--|

repeat intro

Verse 2:Sayang din tilaga...
      e|-------------------------------------------------------|
      B|------------------------------22222222-----------------|
      G|-11111111---------------------44444444-----------------|
      D|-22222222---------------------44444444-------------6~--|
      A|-22222222---------------------22222222-------------6~--|
      E|---------------------------------------------------4~--|

mabilis na flucking lang to pakinggan nyo na lang yung song para makuha yung timing

      e|---4------4-------4----------4------------|
      B|-----4------4-------4----------4----------|
      G|-------4------4-------4----------4--------|
      D|----------------6-------6----------6------|
      A|--------------------------6----------6----|
      E|---------------------------------------4--|

        Ngiti mong kay ganda...
      e|-------------------------------------------------------|
      B|------------------------22222222-----------------------|
      G|-11111111---------------44444444-----------------------|
      D|-22222222---------------44444444-------------44444444--|
      A|-22222222---------------22222222-------------44444444--|
      E|---------------------------------------------22222222--|
         ........               ........             ........
Repeat Pre-Chorus:
Repeat Chorus:

Bridge prt.1:
e|-------------------------------------------------------------------|
B|-------------------------------------------------------------------|
G|----------------------------------1111111--------------------------|
D|-6--66666-2--22-22---6--66666--2--2222222---6-666-8-888-9-999-11~--|
A|-6--66666-2--22-22---6--66666--2--2222222---4-444-6-666-7-777--9~--|
E|-4--44444-0--00-00---4--44444--0--0000000--------------------------|

Bridge prt.2:Minsan lang nag-sama...
            e|---------------------------------|
            B|---------------------------------|
            G|---------------------------------|
            D|-66666666--------------88888888--|
            A|-66666666--------------88888888--|
            E|-44444444--------------66666666--|
             Sayang sana ay nagtagal ka pa
            e|-4~----6~---------7~-----------9~--|
            B|-4~----6~---------7~-----------9~--|
            G|-4~----6~---------7~-----------9~--|
            D|-6~----8~---------9~----------11~--|
            A|-6~----8~---------9~----------11~--|
            E|-4~----6~---------7~-----------9~--|
             Doon mag-ingat ka...
           e|----------------------------|------------------------|
           B|----------------------------|------------------------|
           G|----------------------------|------------------------|
           D|-99999999---66666666--9999--|----6------6------6-----|
           A|-99999999---66666666--9999--|-------9------9------9--|
           E|-77777777---44444444--7777--|--7------7------7-------|
              ........   ........  ....     . .  . . .  . . .  .
             Matulog maaga
           e|----------------------------|------------------------|
           B|----------------------------|----9--7---9--7---9--7--|
           G|----------------------------|------------------------|
           D|-99999999---66666666--9999--|--9------9------9-------|
           A|-99999999---66666666--9999--|------------------------|
           E|-77777777---44444444--7777--|------------------------|
              ........   ........  ....     . .  . . .  . . .  .
repeat chorus and then end with
           e|--------------|
           B|-0~-----------|
           G|-4~-----------|
           D|-4~-----------|
           A|-2~-----------|
           E|--------------|
yan natapos ko na rin sa wakas kung my comment kayo pwede nio pong i send sa 
yan po ung friendster ko tnx po paki rate na lang po

Ingat Ka Lyrics:

Verse 1:
Huwag kang mag-alala
Nakaukit na sa isip ko
Nakatitig sa’yong mata
Nasa langit na ba ako
Minsan lang nagsama
Sa lunes aalis ka na

Pre-Chorus 1:
Salamat narin ikaw ay nakilala

Chorus 1:
Doon mag-ingat ka (San ka man magpunta)
Matulog maaga (Para di mamutla)
Huwag mashadong magpupuyat
Inom gamot pag nilalagnat

Verse 2:
Sayang din talaga
Pag kausap ka’y sarap sa tenga
Ngiti mong kay ganda
Siguradong mamimiss kita

Pre-Chorus 2:
Minsan lang nagsama
Sa ferris’wheel tabi kita
Salamat narin extended version pa

Chorus 2:
Doon mag-ingat ka (san ka man magpunta)
Matulog maaga (para di mamutla)
Hinay-hinay lang sa kape
Lalung-lalo na sa tanghali

Bridge:
Minsan lang nagsama
At bukas aalis ka na
Sayang sana ay nagtagal ka pa

Outro Chorus:
Doon mag-ingat ka (Doon mag-ingat ka)
Matulog maaga (Matulog maaga)
Huwag mashadong magpupuyat
Inom gamot pag nilalagnat
Hinay-hinay lang sa kape
Lalung-lalo na sa tanghali





Comments


Popular Silent Sanctuary tabs & chords
14 1 Chords
Abot Langit 3 Chords
Bumalik Ka Na Sakin 1 Chords
Hiling 3 Chords
Ikaw Lamang 1 Chords
Ikaw Lamang 2 Chords
Kismet Chords
Sayo 2 Chords
Hinga Ng Malalim Ukulele
Ikaw Lamang Ukulele


Song lyrics



↑ Back to top | Tablatures and chords are parodies/interpretations of the original songs. You may use it for private study, scholarship, research or language learning purposes only
© 2014 AZChords.com Contact us | Privacy policy | DMCA | Add/correct tabs | Request tabs | Top 50 tabs