>
 >
Ingat Ka

Ingat Ka Guitar Tabs

Silent Sanctuary - Ingat Ka chords, tabs, tablatures, lyrics

Guitar lessons | Add/correct | Request | Top 50 tabs Artists:  A B C D E F G H I J K L M N O P Q R S T U V W X Y Z 0-9

Ingat Ka Guitar Tabs – Silent Sanctuary

CD, Sheet music, Poster

Do you like Ingat Ka? Share with your friends now
ChordsChords v2TabsTabs v2Tabs v3Ukulele
Album:Kwentong Pag-Ibig/Fuchiang Pag-Ibig
              09229015724(Sun Cell)

For your questions or suggestions,just PM or Text me!!
Please Rate...

Gtr.Legends:
. - palm muting
~ - let it ring

Gtr.Tuning:Standard(Normal)
e|---------------------------------------------------------4-2----4-2-----2-------------|
B|-00000-00000------------------------------00000-00000------------------------0~-------|
G|-44444-44444----1------1------1------1----44444-44444--4------4------4----4--4~-------|
D|-44444-44444------4------4------4------4--44444-44444------------------------4~--4~---|
A|-22222-11111--2------2------2------2------22222-11111------------------------2~--4~---|
E|---------------------------------------------------------------------------------2~---|

Verse 1:Huwag kang mag-alala...   Nakatitig sayong mata...                    Minsan lang....
e|--------------------2~-------   ------------------------------------------  ---------------|
B|-00000-00000-----------------   ------------------------------------------  ---------------|
G|-44444-44444----4------------   ----1------1------1------1----4444--------  ---------------|
D|-44444-44444------4----------   ------4------4------4------4--4444-4444---  -66666-22222---|
A|-22222-11111--2--------------   --2------2------2------2------2222-4444---  -66666-22222---|
E|-----------------------------   -----------------------------------2222---  -44444-00000---|

Pre-Chorus 1:Salamat na rin...
e|-----------------------------|
B|-----------------------------|
G|-6~---8~---9~---11~-111111---|
D|-6~---8~---9~---11~-111111---|
A|-4~---6~---7~----9~--99999---|
E|-----------------------------|

Chorus:Doon mag-ingat ka...     Huwag masyadong...
e|----------------------------  -----------------------------------|
B|----------------------------  -----------------------------------|
G|-44444---------44444--------  -----------------------------------|
D|-44444--66666--44444--66666-  -222-66-2222--222-6666-6666-4444---|
A|-22222--66666--22222--66666-  -222-66-2222--222-6666-4444-4444---|
E|--------44444---------44444-  -000-44-0000--000-4444------2222---|

Pre-Verse 2:
e|---------------------------------------------------------------4--2----4-2-----4-2--------|
B|-00000-00000------------------------------------00000-00000--------------------------0~---|
G|-44444-44444-----1-------1--------1------4-0----44444-44444--4-------4-------4-------4~---|
D|-44444-44444--------4------4--------4--------4--44444-44444--------------------------4~---|
A|-22222-11111--2--------2-------2-------2--------22222-11111--------------------------2~---|
E|------------------------------------------------------------------------------------------|

Verse 2:Sayang din tilaga...           Minsan lang...
e|-----------------------------------  --------------|
B|-----------------------------------  --------------|
G|------4444--------------4444-------  --------------|
D|-2222-4444--4~-----2222-4444-4444--  -66666-2222---|
A|-2222-2222--4~-----2222-2222-4444--  -66666-2222---|
E|-0000-------2~-----0000------2222--  -44444-0000---|
   .... ....         .... .... ....

Repeat Pre-Chorus:
Repeat Chorus:

Bridge prt.1:
e|-------------------------------------------------------------------------|
B|-------------------------------------------------------------------------|
G|-------------------------------------------------------------------------|
D|-6666-2222--22-2-22---66666-2222222222---66666-8888-99999-111111111111---|
A|-6666-2222--22-2-22---66666-2222222222---44444-6666-77777--9-9-9-9-9-9---|
E|-4444-0000--00-0-00---44444-0000000000-----------------------------------|

Bridge prt.2:Minsan lang nag-sama...
e|---------------------------------------|
B|---------------------------------------|
G|-4444-44444----------------------------|
D|-4444-22222-66666-8888-9999-11111111---|
A|-2222-------44444-6666-7777--9-9-9-9---|
E|---------------------------------------|

Doon mag-ingat ka...
e|-------------------------------------------|
B|-00000-00000-------------------------------|
G|-44444-44444----1------1------1------1-----| 2x
D|-44444-44444------4------4------4------4---|
A|-22222-11111--2------2------2------2-------|
E|-------------------------------------------|

Outro Chorus:Doon mag-ingat ka...  Huwag masyadong mag-pupuyat...
e|------------------------         ---------------|
B|------------------------         ---------------|
G|-44444------------------         ---------------| 4x
D|-44444--66666--22222----         -22222-66666---|
A|-22222--66666--22222----         -22222-66666---|
E|--------44444--00000----         -00000-44444---|

Lat Chords:
e|----------------4-2------2~---|
B|--------------4--------0~-----|
G|----------4-3----------4~-----|
D|-2~---6~---------------4~-----|
A|-2~---6~-------------2~-------|
E|-0~---4~----------------------|

End...


Ingat Ka Lyrics:

Verse 1:
Huwag kang mag-alala
Nakaukit na sa isip ko
Nakatitig sa’yong mata
Nasa langit na ba ako
Minsan lang nagsama
Sa lunes aalis ka na

Pre-Chorus 1:
Salamat narin ikaw ay nakilala

Chorus 1:
Doon mag-ingat ka (San ka man magpunta)
Matulog maaga (Para di mamutla)
Huwag mashadong magpupuyat
Inom gamot pag nilalagnat

Verse 2:
Sayang din talaga
Pag kausap ka’y sarap sa tenga
Ngiti mong kay ganda
Siguradong mamimiss kita

Pre-Chorus 2:
Minsan lang nagsama
Sa ferris’wheel tabi kita
Salamat narin extended version pa

Chorus 2:
Doon mag-ingat ka (san ka man magpunta)
Matulog maaga (para di mamutla)
Hinay-hinay lang sa kape
Lalung-lalo na sa tanghali

Bridge:
Minsan lang nagsama
At bukas aalis ka na
Sayang sana ay nagtagal ka pa

Outro Chorus:
Doon mag-ingat ka (Doon mag-ingat ka)
Matulog maaga (Matulog maaga)
Huwag mashadong magpupuyat
Inom gamot pag nilalagnat
Hinay-hinay lang sa kape
Lalung-lalo na sa tanghali 





Comments


Popular Silent Sanctuary tabs & chords
Abot Langit Chords
Estella Chords
Hiling Chords
Kismet 1 Chords
Maalala Mo Sana 1 Chords
Patunayan Chords
Sandali Lang 2 Chords
Summer Song Chords
Kismet Ukulele
Kundiman Ukulele


Song lyrics



↑ Back to top | Tablatures and chords are parodies/interpretations of the original songs. You may use it for private study, scholarship, research or language learning purposes only
© 2014 AZChords.com Contact us | Privacy policy | DMCA | Add/correct tabs | Request tabs | Top 50 tabs