» » »

Kundiman Chords (ver.1)

Artists:  A B C D E F G H I J K L M N O P Q R S T U V W X Y Z # 

Kundiman Chords (ver.1)

Silent Sanctuary
Rating:
4/5 (7 votes)

Hard to play? Try these video lessons and learn fast.
                Kundiman by 
Silent Sanctuary
time: 11:58 am

ganda ng song na toh, pangharana sa darating na valentine's day...hi nga pala k 
yna ^-^, saka kay ms.fam na my new lovelife na :)

Intro:  E/C# F#/Eb E(4x)

e|-----------------------------------------------|
B|----------------------------------7------------|
G|------4------------4--------8-------8----------|
D|----2---2--------4---4----9-----9--------------|
A|--4-------4s6--6--------7-----7--------7-------|
E|-----------------------------------------------|


e|---------------------------------------------|
B|---------------------------------------------|
G|------4------------4--------8----------------|
D|----2---2--------4---4----9------------------|
A|--4-------4s6--6--------7--------------------|
E|---------------------------------------------|

verse: E/C# F#/Eb E


Para kang asukal

sintamis mong magmahal

para kang pintura

buhay koy ikaw ang nagpinta

para kang unan

pinapainit mo ang aking tiyan

para kang kumot

na yumayakap sa tuwing
    
ako'y nalulungkot

Refrain:  E/C# F#/Eb E/C# F#

   
Kaya't wag magtataka
      
kung bakit ayaw kitang mawala

Chorus:  E F#/Eb E/C# F#/Eb 2x

Kung hindi man tayo hanggang dulo
      
wag mong kalimutan
         
nandito lang ako
 
laging umaalalay

di ako lalayo
            
dahil ang tanging pan*langin
ko ay ikaw


Intro E/C# F#/Eb E(4x)

verse 2  E/C# F#/Eb E
di baleng maghapon na umulan

basta't ikaw ang sasandalan

liwanag ng lumulubog na araw

kay sarap pagmasdan

lalo na kapag nasisinagan ang

iyong mukha

ayoko nang magsawa

hinding hindi magsasawa sa'yo

Repeat Refrain
Repeat Chorus

Bridge:

 Ebm   E
Bahala na
 Ebm    Abm         C#m
ayoko munang magsalita
  A2           Abm
hayaan na muna natin ang 
  G         F#
hatol ng tadhana
 
Instrumental:  Ebm F# Ebm C#m Ebm C#m B
               Ebm F# Ebm F#
               Ebm F# Ebm C#m Ebm C#m B
               Ebm F# Ebm B C#m F#

Repeat Chorus

Outro: E/C# F#/Eb E (4x)
            
Hard to play? Try these video lessons and learn fast. | Correct




comments powered by Disqus
↑ Back to top | Tablatures and chords are parodies/interpretations of the original songs. You may use it for private study, scholarship, research or language learning purposes only