» » »

Silent Sanctuary, Ikaw Lamang Tabs (ver.3)

Artists:  A B C D E F G H I J K L M N O P Q R S T U V W X Y Z # 

Ikaw Lamang Tabs (ver.3)

Silent Sanctuary Tabs
Rating:
3/5 (1 vote)
Ikaw Lamang lessons Tabs too difficult? Try these video lessons and learn fast
                Yr.lvl : 3rd poh....

Time:5:37pm - 6:54 PM





Intro
e|-----------------|-----------------|-----------------|----------------|
B|-----------------|-----------------|-----------------|----------------|
G|-----------------|-----------------|-----------------|----------------|
D|2-2-2------------|2-2-2------------|-----------------|----------------|
A|0-0-0---2-2-2-2-2|0-0-0---2-2-2-2-2|--------4-4-4-4-4|-------4-4-4-4-4|
E|--------0-0-0-0-0|--------0-0-0-0-0|2-2-2------------|2-2-2-----------|

Verse I

e|-----------------|-----------------|-----------------|----------------|
B|-----------------|-----------------|-----------------|----------------|
G|-----------------|-----------------|-----------------|----------------|
D|2-2-2------------|2-2-2------------|-----------------|----------------|
A|0-0-0---2-2-2-2-2|0-0-0---2-2-2-2-2|--------4-4-4-4-4|-------4-4-4-4-4|
E|--------0-0-0-0-0|--------0-0-0-0-0|2-2-2------------|2-2-2-----------|
          di ko maintindihan ......
e|-----------------|-----------------|-----------------|----------------|
B|-----------------|-----------------|-----------------|----------------|
G|-----------------|-----------------|-----------------|----------------|
D|2-2-2------------|2-2-2------------|-----------------|----------------|
A|0-0-0---2-2-2-2-2|0-0-0---2-2-2-2-2|--------4-4-4-4-4|-------4-4-4-4-4|
E|--------0-0-0-0-0|--------0-0-0-0-0|2-2-2------------|2-2-2-----------|
          tuwing magkahawak ang ating kamay
e|-----------------|-----------------|-----------------|----------------|
B|-----------------|-----------------|-----------------|----------------|
G|-----------------|-----------------|-----------------|----------------|
D|2-2-2------------|2-2-2------------|-----------------|----------------|
A|0-0-0---2-2-2-2-2|0-0-0---2-2-2-2-2|--------4-4-4-4-4|-------4-4-4-4-4|
E|--------0-0-0-0-0|--------0-0-0-0-0|2-2-2------------|2-2-2-----------|
          pinapan*langin ...
e|-----------------|-----------------|-----------------|-----------------2|
B|-----------------|-----------------|-----------------|-----------------2|
G|-----------------|-----------------|-----------------|-----------------2|
D|2-2-2------------|2-2-2------------|-----------------|-----------------4|
A|0-0-0---2-2-2-2-2|0-0-0---2-2-2-2-2|--------4-4-4-4-4|-------4-4-4-4-4-4|
E|--------0-0-0-0-0|--------0-0-0-0-0|2-2-2------------|2-2-2------------2|
          hinihiling...                                             

Verse 2: Dito strumming nah poh...
 
       e|--0-0-0-0-0-0---|----------------|---------------|
       B|--3-3-3-3-3-3---|----------------|---------------|
       G|--2-2-2-2-2-2---|--2-2-2-2-2-2---|-2-2-2-2-2-2---|
       D|----------------|--2-2-2-2-2-2---|-2-2-2-2-2-2---|
       A|----------------|----------------|-X-X-X-X-X-X---|
       E|----------------|----------------|-2-2-2-2-2-2---|
      sa lahat....

       e|--0-0-0-0-0-0---|----------------|---------------|
       B|--3-3-3-3-3-3---|----------------|---------------|
       G|--2-2-2-2-2-2---|--2-2-2-2-2-2---|-2-2-2-2-2-2---|
       D|----------------|--2-2-2-2-2-2---|-2-2-2-2-2-2---|
       A|----------------|----------------|-X-X-X-X-X-X---|
       E|----------------|----------------|-2-2-2-2-2-2---|
           Ikaw lamang...

Refrain:

e|-1-1-1-1-1-1----|-0-0-0-0-0-0----|-1-1-1-1-1-1---|-0-0-0-0-0-0---|
B|-1-1-1-1-1-1----|-0-0-0-0-0-0----|-1-1-1-1-1-1---|-0-0-0-0-0-0---|
G|-2-2-2-2-2-2----|-1-1-1-1-1-1----|-2-2-2-2-2-2---|-1-1-1-1-1-1---|
D|-3-3-3-3-3-3----|-2-2-2-2-2-2----|-3-3-3-3-3-3---|-2-2-2-2-2-2---|
A|-3-3-3-3-3-3----|-2-2-2-2-2-2----|-3-3-3-3-3-3---|-2-2-2-2-2-2---|
E|-1-1-1-1-1-1----|----------------|-1-1-1-1-1-1---|---------------|
   Sana'y ......

Chorus:

e|---------------|----------------|---------------|---------------|
B|---------------|----------------|---------------|---------------|
G|-2-2-2-2-2-2---|-2-2-2-2-2-2----|-2-2-2-2-2-2---|-2-2-2-2-2-2---|
D|-2-2-2-2-2-2---|-2-2-2-2-2-2----|-2-2-2-2-2-2---|-2-2-2-2-2-2---|
A|---------------|-X-X-X-X-X-X----|---------------|-X-X-X-X-X-X---|
E|---------------|-2-2-2-2-2-2----|---------------|-2-2-2-2-2-2---|

e|-0-0-0-0-0-0---|-1---------|
B|-3-3-3-3-3-3---|-3---------|
G|-2-2-2-2-2-2---|-2---------|
D|---------------|-----------|
A|---------------|-----------|
E|---------------|-----------|

e|---------------|----------------|
B|---------------|----------------|
G|-2-2-2-2-2-2---|-2-2-2-2-2-2----|
D|-2-2-2-2-2-2---|-2-2-2-2-2-2----|
A|---------------|-X-X-X-X-X-X----|
E|---------------|-2-2-2-2-2-2----|

e|-0-0-0-0-0-0---|-1---------|
B|-3-3-3-3-3-3---|-3---------|
G|-2-2-2-2-2-2---|-2---------|
D|---------------|-----------|
A|---------------|-----------|
E|---------------|-----------|

e|---------------|----------------|
B|---------------|----------------|
G|-2-2-2-2-2-2---|-2-2-2-2-2-2----|
D|-2-2-2-2-2-2---|-2-2-2-2-2-2----|
A|---------------|-X-X-X-X-X-X----|
E|---------------|-2-2-2-2-2-2----|

e|-0-0-0-0-0-0---|-1---------|
B|-3-3-3-3-3-3---|-3---------|
G|-2-2-2-2-2-2---|-2---------|
D|---------------|-----------|
A|---------------|-----------|
E|---------------|-----------|

Interlude:

e|---------------|----------------|---------------|---------------|
B|---------------|----------------|---------------|---------------|
G|-2-2-2-2-2-2---|-2-2-2-2-2-2----|-2-2-2-2-2-2---|-2-2-2-2-2-2---|
D|-2-2-2-2-2-2---|-2-2-2-2-2-2----|-2-2-2-2-2-2---|-2-2-2-2-2-2---|
A|---------------|-X-X-X-X-X-X----|---------------|-X-X-X-X-X-X---|
E|---------------|-2-2-2-2-2-2----|---------------|-2-2-2-2-2-2---|
Verse III

e|----|----------------|---------------|---------------|
B|---P|----------------|---------------|---------------|
G|-2-A|-2-2-2-2-2-2----|-2-2-2-2-2-2---|-2-2-2-2-2-2---|
D|-2-U|-2-2-2-2-2-2----|-2-2-2-2-2-2---|-2-2-2-2-2-2---|
A|---S|-X-X-X-X-X-X----|---------------|-X-X-X-X-X-X---|
E|---E|

e|---------------|----------------|---------------|---------------|
B|---------------|----------------|---------------|---------------|
G|-2-2-2-2-2-2---|-2-2-2-2-2-2----|-2-2-2-2-2-2---|-2-2-2-2-2-2---|
D|-2-2-2-2-2-2---|-2-2-2-2-2-2----|-2-2-2-2-2-2---|-2-2-2-2-2-2---|
A|---------------|-X-X-X-X-X-X----|---------------|-X-X-X-X-X-X---|
E|---------------|-2-2-2-2-2-2----|---------------|-2-2-2-2-2-2---|

       e|--0-0-0-0-0-0---|----------------|---------------|
       B|--3-3-3-3-3-3---|----------------|---------------|
       G|--2-2-2-2-2-2---|--2-2-2-2-2-2---|-2-2-2-2-2-2---|
       D|----------------|--2-2-2-2-2-2---|-2-2-2-2-2-2---|
       A|----------------|----------------|-X-X-X-X-X-X---|
       E|----------------|----------------|-2-2-2-2-2-2---|

       e|--0-0-0-0-0-0---|----------------|---------------|
       B|--3-3-3-3-3-3---|----------------|---------------|
       G|--2-2-2-2-2-2---|--2-2-2-2-2-2---|-2-2-2-2-2-2---|
       D|----------------|--2-2-2-2-2-2---|-2-2-2-2-2-2---|
       A|----------------|----------------|-X-X-X-X-X-X---|
       E|----------------|----------------|-2-2-2-2-2-2---|

Refrain:

e|-1-1-1-1-1-1----|-0-0-0-0-0-0----|-1-1-1-1-1-1---|-0-0-0-0-0-0---|
B|-1-1-1-1-1-1----|-0-0-0-0-0-0----|-1-1-1-1-1-1---|-0-0-0-0-0-0---|
G|-2-2-2-2-2-2----|-1-1-1-1-1-1----|-2-2-2-2-2-2---|-1-1-1-1-1-1---|
D|-3-3-3-3-3-3----|-2-2-2-2-2-2----|-3-3-3-3-3-3---|-2-2-2-2-2-2---|
A|-3-3-3-3-3-3----|-2-2-2-2-2-2----|-3-3-3-3-3-3---|-2-2-2-2-2-2---|
E|-1-1-1-1-1-1----|----------------|-1-1-1-1-1-1---|---------------|

Chorus:

e|---------------|----------------|---------------|---------------|
B|---------------|----------------|---------------|---------------|
G|-2-2-2-2-2-2---|-2-2-2-2-2-2----|-2-2-2-2-2-2---|-2-2-2-2-2-2---|
D|-2-2-2-2-2-2---|-2-2-2-2-2-2----|-2-2-2-2-2-2---|-2-2-2-2-2-2---|
A|---------------|-X-X-X-X-X-X----|---------------|-X-X-X-X-X-X---|
E|---------------|-2-2-2-2-2-2----|---------------|-2-2-2-2-2-2---|

e|-0-0-0-0-0-0---|-1---------|
B|-3-3-3-3-3-3---|-3---------|
G|-2-2-2-2-2-2---|-2---------|
D|---------------|-----------|
A|---------------|-----------|
E|---------------|-----------|

e|---------------|----------------|
B|---------------|----------------|
G|-2-2-2-2-2-2---|-2-2-2-2-2-2----|
D|-2-2-2-2-2-2---|-2-2-2-2-2-2----|
A|---------------|-X-X-X-X-X-X----|
E|---------------|-2-2-2-2-2-2----|

e|-0-0-0-0-0-0---|-1---------|
B|-3-3-3-3-3-3---|-3---------|
G|-2-2-2-2-2-2---|-2---------|
D|---------------|-----------|
A|---------------|-----------|
E|---------------|-----------|

e|---------------|----------------|
B|---------------|----------------|
G|-2-2-2-2-2-2---|-2-2-2-2-2-2----|
D|-2-2-2-2-2-2---|-2-2-2-2-2-2----|
A|---------------|-X-X-X-X-X-X----|
E|---------------|-2-2-2-2-2-2----|

e|-0-0-0-0-0-0---|-1---------|
B|-3-3-3-3-3-3---|-3---------|
G|-2-2-2-2-2-2---|-2---------|
D|---------------|-----------|
A|---------------|-----------|
E|---------------|-----------|


Bridge:

e|---------------|----------------|---------------|---------------|
B|---------------|----------------|---------------|---------------|
G|-2-2-2-2-2-2---|-2-2-2-2-2-2----|-2-2-2-2-2-2---|-2-2-2-2-2-2---|
D|-2-2-2-2-2-2---|-2-2-2-2-2-2----|-2-2-2-2-2-2---|-2-2-2-2-2-2---|
A|---------------|-X-X-X-X-X-X----|---------------|-X-X-X-X-X-X---|
E|---------------|-2-2-2-2-2-2----|---------------|-2-2-2-2-2-2---|

e|---------------|----------------|---------------|---------------|
B|---------------|----------------|---------------|---------------|
G|-2-2-2-2-2-2---|-2-2-2-2-2-2----|-2-2-2-2-2-2---|-2-2-2-2-2-2---|
D|-2-2-2-2-2-2---|-2-2-2-2-2-2----|-2-2-2-2-2-2---|-2-2-2-2-2-2---|
A|---------------|-X-X-X-X-X-X----|---------------|-X-X-X-X-X-X---|
E|---------------|-2-2-2-2-2-2----|---------------|-2-2-2-2-2-2---|


Chorus:

e|---------------|----------------|---------------|---------------|
B|---------------|----------------|---------------|---------------|
G|-2-2-2-2-2-2---|-2-2-2-2-2-2----|-2-2-2-2-2-2---|-2-2-2-2-2-2---|
D|-2-2-2-2-2-2---|-2-2-2-2-2-2----|-2-2-2-2-2-2---|-2-2-2-2-2-2---|
A|---------------|-X-X-X-X-X-X----|---------------|-X-X-X-X-X-X---|
E|---------------|-2-2-2-2-2-2----|---------------|-2-2-2-2-2-2---|

e|-0-0-0-0-0-0---|-1---------|
B|-3-3-3-3-3-3---|-3---------|
G|-2-2-2-2-2-2---|-2---------|
D|---------------|-----------|
A|---------------|-----------|
E|---------------|-----------|

e|---------------|----------------|
B|---------------|----------------|
G|-2-2-2-2-2-2---|-2-2-2-2-2-2----|
D|-2-2-2-2-2-2---|-2-2-2-2-2-2----|
A|---------------|-X-X-X-X-X-X----|
E|---------------|-2-2-2-2-2-2----|

e|-0-0-0-0-0-0---|-1---------|
B|-3-3-3-3-3-3---|-3---------|
G|-2-2-2-2-2-2---|-2---------|
D|---------------|-----------|
A|---------------|-----------|
E|---------------|-----------|

e|---------------|----------------|
B|---------------|----------------|
G|-2-2-2-2-2-2---|-2-2-2-2-2-2----|
D|-2-2-2-2-2-2---|-2-2-2-2-2-2----|
A|---------------|-X-X-X-X-X-X----|
E|---------------|-2-2-2-2-2-2----|

e|-0-0-0-0-0-0---|-1---------|
B|-3-3-3-3-3-3---|-3---------|
G|-2-2-2-2-2-2---|-2---------|
D|---------------|-----------|
A|---------------|-----------|
E|---------------|-----------|


-----------------------------------------------------------------------------


I dedicated this song to my XGF poh... bwuhahahaha...

Hehehehe...
            

comments powered by Disqus
↑ Back to top | Silent Sanctuary Tabs for Ikaw Lamang. Lyrics for acoustic guitar and electric guitar. Tablatures and chords are parodies/interpretations of the original songs. You may use it for private study, scholarship, research or language learning purposes only