» » »

Silent Sanctuary, Ikaw Lamang Tabs (ver.2)

Artists:  A B C D E F G H I J K L M N O P Q R S T U V W X Y Z # 

Ikaw Lamang Tabs (ver.2)

Silent Sanctuary Tabs
 Rating:
3.2/5 (24 votes)
Ikaw Lamang lessons Tabs too difficult? Try these video lessons and learn fast
1
                ikaw lamang (patcha)
was made kapa by jose

chords used:
    A      F#m      D      Dm       F       E     Esus
|---0---|---2---|---0---|---1---|---1---|---0---|---0---|
|---0---|---2---|---3---|---3---|---1---|---0---|---0---|
|---2---|---2---|---2---|---2---|---2---|---1---|---2---|
|---2---|---4---|---0---|---0---|---3---|---2---|---2---|
|---0---|---4---|---x---|---x---|---3---|---2---|---2---|
|---x---|---2---|---x---|---x---|---1---|---0---|---0---|

intro& 1st verse: cello

|----------------------------------------------------------------|  |-----|
|----------------------------------------------------------------|  |-----|
|----------------------------------------------------------------|  |-----|
|----------------------------------------------------------------|5x|-----|
|-0-0-0----------0-0-0----------------4-4-4-4-4--------4-4-4-4-4-|  |-----|
|------0-0-0-0-0------0-0-0-0-0--2-2-2----------2-2-2------------|  |--2--|
di ko maintindihan
ang nilalaman ng puso
tuwing magkahawak ang ating kamay
pinapan*langin lagi tayong magkasama
hinihiling bawat oras kapiling ka

pre-chorus:
     D       A          F#m
Sa lahat ng aking ginagawa
 D                  A           F#m
Ikaw lamang ang nasa isip ko sinta
F                 E
Sana’y di na tayo magkahiwalay
F               E-Esus-E
Kahit kailan pa man

chorus:
 A                    F#m
Ikaw lamang ang aking minamahal
 A                    F#m
Ikaw lamang ang tangi kong inaasam
    D        Dm (pause)      
Makapiling ka habang buhay
 A             F#m
Ikaw lamang sinta
  D         Dm (pause)
Wala na kong hihingin pa
  A  F#m   D          Dm(pause)
Wala na    ooooooooh   ooohhoohh

pre-verse: 

A-F#m (2x)

ito ung bass:
|---------------------------------------------------|
|---------------------------------------------------|
|-----------------------------4-2-2-4-----4-2-2-4---|2x
|-5-5-7-5-4-5-5-7-5-7-5-4-2-2---------2-2---------2-|

verse 2:
A(pause)
Ayoko ng maulit pa
    F#m                  A
Ang nakaraang ayokong maalala
                F#m
Bawat oras na wala ka
                      A
Parang mabigat na parusa
                          F#m
Huwag mong kakalimutan na kahit nag-iba
A                    F#m
Hindi ako tumigil magmahal sayo sinta

repeat pre-chorus
repeat chorus

bridge:
F-E-F-E (3x)
F-E-F-E-Esus-E

chorus:
 A                    F#m
Ikaw lamang ang aking minamahal
 A                    F#m
Ikaw lamang ang tangi kong inaasam
    D        Dm (pause)      
Makapiling ka habang buhay
 A             F#m
Ikaw lamang sinta
  D         Dm (pause)
Wala na kong hihingin pa
  A  F#m   D          Dm(pause)
Wala na    ooooooooh   ooohhoohh



para to sa mahal parin ung pers lab nila. 
kagaya ko, cha. kagaya ko.
            
Submit corrections

comments powered by Disqus
↑ Back to top | Silent Sanctuary Tabs for Ikaw Lamang. Lyrics for acoustic guitar and electric guitar. 1 Tablatures and chords are parodies/interpretations of the original songs. You may use it for private study, scholarship, research or language learning purposes only