» » »

Silent Sanctuary, Ikaw Lamang Chords (ver.1)

Artists:  A B C D E F G H I J K L M N O P Q R S T U V W X Y Z # 

Ikaw Lamang Chords (ver.1)

Silent Sanctuary Tabs
Rating:
4/5 (4 votes)
Ikaw Lamang lessons Tabs too difficult? Try these video lessons and learn fast
                -------------------------------------------------------------------------------
-------------------------------------------------------------------------------

Tuning: Standard

Intro: Bass
 
G|--------------------------------------------------------------------|
D|--------------------------------------------------------------------|
A|--000----------000----------222----------444------------------------|
E|-------0000-0-------0000-0-------2222-2-------4444-4----------------|


Verse I:

  A 
  Di ko maintindihan 

  F#m 
  Ang nilalaman ng puso 

  A                     F#m 
  Tuwing magkahawak ang ating kamay 

  A                   F#m 
  Pinapan*langin lagi tayong magkasama 

  A                      F#m 
  Hinihiling bawat oras ka piling ka 


Pre-Chorus:

  Dm7          A9           F#m 
  Sa lahat  ng aking  ginagawa 

  Dm7                   A9        F#m 
  Ikaw lamang ang nasa isip ko sinta 

  F                 E 
  Sana'y di na tayo magkahiwalay 

  F               Esus4-E 
  Kahit kailan pa man


Chorus:  

  A                     F#m 
  Ikaw lamang ang aking minamahal 

  A                     F#m 
  Ikaw lamang ang tangi kong inaasam 

  Dm6          Dm 
  Makapiling ka habang buhay 

  A           F#m 
  Ikaw lamang sinta 

  Dm6         Dm 
  Wala na kong hihingin pa 

  A    F#m  Dm6 Dm 
  Wala na ..huh hhohhhh


G|---------------------------------------------------------------|
D|---------------------------------------------------------------|
A|-----7-----------------------2s4-2-2-0--------2s4-2-2-0--------|      2x
E|--55---5-5s7-7-5-454--0-2--------------0-2---------------4-5---|


Verse 2:

  A (let it ring)
  Ayoko ng maulit pa

  F#m
  Ang nakaraang ayokong maalala

  A               F#m
  Bawat oras na wala ka

 (F#m)
  Parang mabigat na parusa

  A                         F#m  
  Huwag mong kakalimutan na kahit nag-iba

  A                      F#m
  Hindi ako tumigil magmahal sayo sinta


Pre-Chorus:

  Dm7          A9           F#m 
  Sa lahat  ng aking  ginagawa 

  Dm7                   A9        F#m 
  Ikaw lamang ang nasa isip ko sinta 

  F                 E 
  Sana'y di na tayo magkahiwalay 

  F               Esus4-E 
  Kahit kailan pa man


Chorus:  

  A                     F#m 
  Ikaw lamang ang aking minamahal 

  A                     F#m 
  Ikaw lamang ang tangi kong inaasam 

  Dm6          Dm 
  Makapiling ka habang buhay 

  A           F#m 
  Ikaw lamang sinta 

  Dm6         Dm 
  Wala na kong hihingin pa 

  A    F#m  Dm6 Dm 
  Wala na ..huh hhohhhh


Bridge:
 In the song, a violin is used but you can use a guitar if you like...

e|---5---5555---444444---5555555---4444444-------------------------|
B|---6---6666---555555---6666666---5555555-------------------------|
G|---5---5555---444444---5555555---4444444-------------------------|
D|---7---7777---666666---7777777---6666666-------------------------|
A|---8---8888---777777---8888888---7777777-------------------------|
E|---5---5555---444444---5555555---4444444-------------------------|
      <<<<<<<<>>>>>>>>>


e|---55555555555---44444444444---5555555555555---7-7-77-7-777777--|
B|---66666666666---55555555555---6666666666666---9-9-99-9-999999--|
G|---55555555555---44444444444---5555555555555---9-9-99-9-999999--|
D|---77777777777---66666666666---7777777777777---9-9-99-9-999999--|
A|---88888888888---77777777777---8888888888888---7-7-77-7-777777--|
E|---55555555555---44444444444---5555555555555--------------------|
                 <<<<<<<<>>>>>>>>>


Chorus:  

  A                     F#m 
  Ikaw lamang ang aking minamahal 

  A                     F#m 
  Ikaw lamang ang tangi kong inaasam 

  Dm6          Dm 
  Makapiling ka habang buhay 

  A           F#m 
  Ikaw lamang sinta 

  Dm6         Dm 
  Wala na kong hihingin pa 

  A    F#m  Dm6 Dm 
  Wala na ..huh hhohhhh...



===============================================================================
            

comments powered by Disqus
↑ Back to top | Silent Sanctuary Chords for Ikaw Lamang. Lyrics for acoustic guitar and electric guitar. Tablatures and chords are parodies/interpretations of the original songs. You may use it for private study, scholarship, research or language learning purposes only