» » »

All I Need Tabs (ver.3)

Artists:  A B C D E F G H I J K L M N O P Q R S T U V W X Y Z # 

All I Need Tabs (ver.3)

Shawn Mcdonald
Rating:
5/5 (1 vote)

Hard to play? Try these video lessons and learn fast.
                -----------------------------------------------------------------------------
                             All I Need – Shawn McDonald
-----------------------------------------------------------------------------

Tuning: Standard

I know there’s a version on here already, but this one is much easier to play.

e|--3--x--2--x-----x--------------------------------------------------|
B|--3--x--3--x--1--x--3-----------------------------------------------|
G|-----x-----x--0--x--2-----------------------------------------------|
D|-----x-----x-----x--0-----------------------------------------------|
A|-----x-----x--3--x--------------------------------------------------|
E|--3--x--3--x-----x--------------------------------------------------|

First you fingerpick the strings at the same time.  Then in between each chord mute the 
with your picking hand by giving a sort of percussive slap to them.  Then halfway 
the first verse one guitar starts strumming these chords while the other still picks away.
            
Hard to play? Try these video lessons and learn fast. | Correct




comments powered by Disqus
↑ Back to top | Tablatures and chords are parodies/interpretations of the original songs. You may use it for private study, scholarship, research or language learning purposes only