» » »

All I Need Bass tabs (ver.1)

Artists:  A B C D E F G H I J K L M N O P Q R S T U V W X Y Z # 

All I Need Bass tabs (ver.1)

Shawn Mcdonald
Rating:
5/5 (1 vote)

Hard to play? Try these video lessons and learn fast.
                ---------------------------
All I Need – Shawn McDonald
---------------------------


Tuning: drop D

Bass starts about 0:13

G|------------------------|
D|------------------------|
A|----3-5-----3-5-----3-5-|
D|5-------5-------5-------|

G|--------------------|
D|--------------------|
A|---------3-33--55---| x2
D|5-55--55----------0-|

G|-------------------|
D|-------------------|
A|3-33-33--3-33-55---|
D|-----------------0-|

G|--------------------|
D|--------------------|
A|---------3-33--55---| x3
D|5-55--55----------0-|


G|----------|
D|----------|
A|---5-5-5~-|
D|5~--------|

G|--------------------|
D|--------------------|
A|---------3-33--55---| x6
D|5-55--55----------0-|

No Bass till 2:19

G|--------------------|
D|--------------------|
A|---------3-33--55---| x9
D|5-55--55----------0-|

G|--------|
D|--------|
A|----3-5-|
D|5-------|



That’s it.  Look for more SM bass tabs in the future from me.
=============================================================
            
Hard to play? Try these video lessons and learn fast. | Correct




comments powered by Disqus
↑ Back to top | Tablatures and chords are parodies/interpretations of the original songs. You may use it for private study, scholarship, research or language learning purposes only