» » »

Shawn Mcdonald, All I Need Tabs (ver.1)

Artists:  A B C D E F G H I J K L M N O P Q R S T U V W X Y Z # 

All I Need Tabs (ver.1)

Shawn Mcdonald Tabs
 Rating:
4.3/5 (6 votes)
All I Need lessons Tabs too difficult? Try these video lessons and learn fast
1
                Hey everyone, this is my first tab, but I'm 100% sure that its right.

Capo on 3 (not really necessary)

You only use 4 different chords in this entire song
     1    2    3    4
E ---------------------|
B ---------------------|
G --12----11-----------|
D --12----12---10---12-|
A --10----10---10---12-|
E -------------8 ---10-|

ALright well now all you do is pick each chord with thumb/pointer/middle fingers, and u 
it then slap (X = slap)

ex.

E -------------------------------------|
B -------------------------------------|
G --12---X----11--X--------------------|
D --12---X----12--X----10--X----12---X-|
A --10---X----10--X----10--X----12---X-|
E ---------------------8 --X----10---X-|

Now just continue that rhythm through the entire song, and yes it is that easy, but 
have fun w/ this one, Enjoy!
            
Submit corrections

comments powered by Disqus
↑ Back to top | Shawn Mcdonald Tabs for All I Need. Lyrics for acoustic guitar and electric guitar. 1 Tablatures and chords are parodies/interpretations of the original songs. You may use it for private study, scholarship, research or language learning purposes only