» » »

Shawn Mcdonald, Open Me Tabs (ver.1)

Artists:  A B C D E F G H I J K L M N O P Q R S T U V W X Y Z # 

Open Me Tabs (ver.1)

Shawn Mcdonald Tabs
Rating:
4/5 (1 vote)
Open Me lessons Tabs too difficult? Try these video lessons and learn fast
                Shawn McDonald

tuning: standard
capo: 6

key:
    d: down strum
    u: up strum
    s: slap
    h: hammer
    p: pick up
   (): optional

this should be pretty close to 100%. just listen to the
song so you can hear how it's supposed to sound like. it's
a little hard song to sing and play at the same time but 
overall it isn't that bad.

intro:

e|-----2h3--3p2----3---------------3------|
B|----3--------3---3---3----3---3--3--3---|
G|---0-----0----0-(0)-0-----0---0----0----|
D|-2-----------------------0--0-----------|
A|-----------------------3----------------|
E|----------------------------------------| 

verse:

e|-----2h3--3p2----3--------------3------|
B|----3--------3---3---3----3--3--3--3---|
G|---0-----0----0-(0)-0-----0--0----0----|
D|-2-----------------------0--0----------|
A|-----------------------3---------------|
E|---------------------------------------| 

bridge:

e|--------------------------------------------|
B|-----3--3-------3---------3--3-------3--3---|
D|-----0--0-------2---------0--0-------0--0---|
A|---0---0------0---------0---0------0---0----|
G|------------------0h2----------0h3----------|
E|-3--------0h2---------0---------------------| 

transition 1:

e|----------|
B|-------3--|
D|-----0----|
A|---2------|
G|-3--------|
E|----------|

chorus:

   d d d  d u s d d s d    d u s d

e|-3-3-3--3-3-x-3-3-x-3----3-3-x-3---|
B|-3-3-3--3-3-x-3-3-x-3----3-3-x-3---|
D|-0-0-0--0-0-x-2-2-x-0----0-0-x-0---|
A|-2-0-0--0-0-x-0-0-x-0h2--2-2-x-2---|
G|-3-0-2--2-2-x-0-0-x-0h2--2-2-x-3---|
E|-0-0-3--3-3-x-2-2-x-0----0-0-x-0---| 

transition 2: (after last Em7 up strum)

e|------------|
B|---------3--|
D|-------0----|
A|-----0------|
G|-0h3--------|
E|------------|

intro 2x
verse 4x
bridge 4x
transition 1
chorus 4x
transition 2
bridge 4x
transition 2
verse 4x
bridge 4x
            
Submit corrections

comments powered by Disqus
↑ Back to top | Shawn Mcdonald Tabs for Open Me. Lyrics for acoustic guitar and electric guitar. Tablatures and chords are parodies/interpretations of the original songs. You may use it for private study, scholarship, research or language learning purposes only