» » »

Captivated Tabs (ver.1)

Artists:  A B C D E F G H I J K L M N O P Q R S T U V W X Y Z # 

Captivated Tabs (ver.1)

Shawn Mcdonald
Rating:
4/5 (4 votes)

Hard to play? Try these video lessons and learn fast.
                

This is a song that sounds easier than it sounds.  There are several easy parts put 
to make it sound harder than it is.


Capo: 1
Tuning: Standard (EADGBe)

C#  B   A   E   A2  A9
~~ ~~~ ~~~ ~~~ ~~~ ~~~
4   2   0   0   0   0
4   2   0   1   0   0
6   4   2   2   2   2
6   4   2   2   2   1
6   4   2   0   0   0
4   2   0   0   0   0


============================================================================
Rhythem Guitar
------------------

Intro/Verse

C#  B   A

Chorus/Bridge

E   A2   A9

============================================================================
Violin 1 (can be played with guitar if desired)
-----------------------------------------------

Verse

E --------------------------------------------------------------------------|
A -----4-4---4-4----4---2-2----2-2---2---0-0---0-0---0---0-0----0-0---0-----|
D ---2-----2------2---2------2-----2---2-----2-----2---2------2-----2---2---|
G --------------------------------------------------------------------------|
B --------------------------------------------------------------------------|
e --------------------------------------------------------------------------|

Played quickly and is repeated until the chorus hits

============================================================================Violin 2 (plucked)
-------------------

Intro

E ------------------------------------------------|
A ------------------------------------------------|
D ------------------------------------------------| > x2
G ------------------------------------------------|
B ------------------------------------------------|
e ---8---13-------20----------10---13--------17---|

Verse

E --------------------------|
A ---2---2-------2---2------|
D -----2-----------2--------|
G ---------4----------------|
B --------------------------|
e ----------------------0---|


============================================================================Lyrics
-------

When I look into the mountains I see Your face
When I look into the night sky it sparkles Your Name

The wind in the clouds and the blue in the sky
The sun and the moon and the stars so high
That's what draws me to You

Chorus:
I am
I'm captivated by You
(You know that You do)
I am
I'm captivated

When I wake unto the morning it gives me your sights
When I look across the ocean it echoes Your might

The sand on the shore and the waves in the sea
The air in my lungs and the way You made me
That's what draws me to You

Chorus x2

The wind in the clouds and the blue in the sky
The sun and the moon and the stars so high
The sand on the shore and the waves in the sea
The air in my lungs and the way You made me

The blood in my veins and my heart You invade
The plants how they grow and the trees and the shade
The way that I feel and the Love in my soul
I thank you my God for letting me know

Chorus x2

I am... (synthesized)


God Bless
Enjoy
            
Hard to play? Try these video lessons and learn fast. | Correct




comments powered by Disqus
↑ Back to top | Tablatures and chords are parodies/interpretations of the original songs. You may use it for private study, scholarship, research or language learning purposes only