>
 >
Haplos 1

Haplos 1 Guitar Tabs

Shamrock - Haplos 1 chords, tabs, tablatures, lyrics

Guitar lessons | Add/correct | Request | Top 50 tabs Artists:  A B C D E F G H I J K L M N O P Q R S T U V W X Y Z 0-9

Haplos 1 Guitar Tabs – Shamrock

CD, Sheet music, Poster

Do you like Haplos 1? Share with your friends now
ChordsChords v2Chords v3TabsTabs v2Ukulele
           "Di bale ng tamad, 'di naman pagod."

capo sa 4th fret
- pag wala kayo capo ibar nyo nalang kaya naman e.
- un chord na D pde nyo gawing F# pag walang capo

C7- x32000

INTRO:


e|---------------------3-2-3------------------------------|
B|--1/3--3--------0--------3---3--------0-----------------|
G|------2--2-0--2------------2---2-0--2-------------------|
D|--------------------------------------------------------|
A|--------------------------------------------------------|
E|--------------------------------------------------------|

Verse
    G            Em
e|--------------------------------------------------------|
B|----3----------------0----------0-----------------------|
G|--2---2-2-2------0-----0----0-----0---------------------|
D|-------------------2-----2----2-----2-------------------|
A|--------------------------------------------------------|
E|--3-----3--------0----------0---------------------------|
    Mahal Hanggang kailan

    Am
e|--------------------------------------------------------|
B|--1-----1---------1-----1-------------------------------|
G|------2---2-----------2---2-----------------------------|
D|----2-------2-------2-------2---------------------------|
A|--0---------------0-------------------------------------|
E|--------------------------------------------------------|
    maghihintay ang puso ko

    C
e|--------------------------------------------------------|
B|--1-----1--------1-----1--------------------------------|
G|------0---0----------0---0------------------------------|
D|----2-------2------2-------2----------------------------|
A|--3--------------3--------------------------------------|
E|--------------------------------------------------------|
    nangungulila sa iyo

    G            Em
e|------------------------------------------3-2-----------|
B|----3-------1-/3----3-------------------0-----3---3-----|
G|--2---2/4-2-------2---2-------------0-----------2---2-0-|
D|------------------------0-------------2-----------------|
A|--------------------------------------------------------|
E|--3---------------------------------0-------------------|
    Handog                  ang puso ko

    Am
e|--------------------------------------------------------|
B|--1-----1---------1-----1-------------------------------|
G|------2---2-----------2---2-----------------------------|
D|----2-------2-------2-------2---------------------------|
A|--0---------------0-------------------------------------|
E|--------------------------------------------------------|
    sa bawat pintig ng pulso

    C                 D
e|--------------------------------------------------------|
B|--1-----1-----------------2-----------------------------|
G|------0---0---------3---3---3---------------------------|
D|----2-------2---------0-------0-------------------------|
A|--3-----------------------------------------------------|
E|--------------------------------------------------------|
    ay alay lamang sa iyo

REFRAIN:

Am           C
Lahat ibibigay
Am                C                D             
Basta't sakin ay, wag kang mawawalay

CHORUS:
       C7     D
Sabihin mo sa akin
       Bm7            E    
Kailan mali ang pag-ibig
    Am
Kailangan bang masaktan pa
  C            D
Ating mga damdamin
       
        C7   D
Yakapin mo ako
        Bm7        E
O hagkan mo akong muli
Am   
Wag kang bibitiw
   C           D  
Sabay nating aabutin
   
Ang langit


e|------------------3-2-3----------------10---------------|
B|-----3-------0--------3---3-------0-10------------------|
G|--2----2-0-2------------2---2-0-2-----------------------|
D|--------------------------------------------------------|
A|--------------------------------------------------------|
E|--3-----------------------------------------------------|

Verse
    G            Em
e|-----------------------3-2------------------------------|
B|----3----------------3-----3-3h5-3-------3--------------|
G|--2---2-2-2------0-----------------2-2h4----------------|
D|--------------------------------------------------------|
A|--------------------------------------------------------|
E|--3-----3--------0--------------------------------------|
    Pano    magwawakas

    Am
e|--------------------------------------------------------|
B|--1-----1---------1-----1-------------------------------|
G|------2---2-----------2---2-----------------------------|
D|----2-------2-------2-------2---------------------------|
A|--0---------------0-------------------------------------|
E|--------------------------------------------------------|
    ang paghihirap ng dibdib

    C
e|--------------------------------10----------------------|
B|--1-----1--------1-----1-----10-------------------------|
G|------0---0----------0---0------------------------------|
D|----2-------2------2-------2----------------------------|
A|--3--------------3--------------------------------------|
E|--------------------------------------------------------|
    sa Diyos akoy nananalig

    G            Em
e|----------------------------3-2-------------------------|
B|----3-----------------------0---3-3h5-3-------3-3h5-3---|
G|--2---2-2-2--------------0--------------2-2h4-----------|
D|--------------------------------------------------------|
A|--------------------------------------------------------|
E|--3-----3----------------0------------------------------|
    Handog      ang buhay ko

    Am
e|--------------------------------------------------------|
B|--1-----1---------1-----1-------------------------------|
G|------2---2-----------2---2-----------------------------|
D|----2-------2-------2-------2---------------------------|
A|--0---------------0-------------------------------------|
E|--------------------------------------------------------|
    sa bawat pintig ng pulso

    C                 D
e|--------------------------------------------------------|
B|--1-----1-----------------2-----------------------------|
G|------0---0---------3---3---3---------------------------|
D|----2-------2---------0-------0-------------------------|
A|--3-----------------------------------------------------|
E|--------------------------------------------------------|
    ay alay lamang sa iyo



REFRAIN:

Am               C
Walang ibang hangad
Am                      C                D             
Dahil itong puso ikaw lamang ang pinapangarap

CHORUS:
       C7     D
Sabihin mo sa akin
       Bm7            E    
Kailan mali ang pag-ibig
    Am
Kailangan bang masaktan pa
  C            D
Ating mga damdamin
       
        C7   D
Yakapin mo ako
        Bm7        E
O hagkan mo akong muli

   Am
e|-------------------------------------------------------|
B|-1---1----------1---1----------------------------------|
G|-------2--------------2--------------------------------|
D|---2-----2--------2-----2------------------------------|
A|-0--------------0--------------------------------------|
E|-------------------------------------------------------|
   wag kang bibitiw

   C           D
e|-------------------------------------------------------|
B|-1---1-------3-3---------------------------------------|
G|-------0---------2-------------------------------------|
D|---2-----2---0-----0-----------------------------------|
A|-3-----------------------------------------------------|
E|-------------------------------------------------------|
   sabay nating hahaplusin
   
Ang langit

e|----------------------------------------3-2--3---------|
B|----3--------0-----1h3---3--------0----------3---------|
G|--2---2-0--2-----2-----2---2-0--2------------4---------|
D|---------------------------------------------5---------|
A|---------------------------------------------5---------|
E|--3----------------3-------------------------3---------|





Comments


Popular Shamrock tabs & chords
Alipin Bass Tabs
Ikaw Lang Chords
Just A Smile Away Chords
Ako Pa Rin Tabs
Alipin 3 Tabs
Alipin Intro Tabs
Kaba Tabs
Ngiti Tabs
Okey Lang Ukulele
Pagkakataon Ukulele


Song lyrics



↑ Back to top | Tablatures and chords are parodies/interpretations of the original songs. You may use it for private study, scholarship, research or language learning purposes only
© 2014 AZChords.com Contact us | Privacy policy | DMCA | Add/correct tabs | Request tabs | Top 50 tabs