>
 >
Pagkakataon

Pagkakataon Guitar Tabs

Shamrock - Pagkakataon chords, tabs, tablatures, lyrics

Guitar lessons | Add/correct | Request | Top 50 tabs Artists:  A B C D E F G H I J K L M N O P Q R S T U V W X Y Z 0-9

Pagkakataon Guitar Tabs – Shamrock

CD, Sheet music, Poster

Do you like Pagkakataon? Share with your friends now
ChordsTabsUkulele
-------------------------------------------------------------------------------
-------------------------------------------------------------------------------

Tuning: Standard

Intro:

                  AM7                                      DM7     
e|------0-tap-------0-tap---------------|------2-tap-------2-tap-------------|
B|-2----2-tap--2----2-tap--2------------|-1s2--2-tap--1s2--2-tap--1s2s1------|
G|-0h1--1-tap--0h1--1-tap--0h1p0--------|-1s2--2-tap--1s2--2-tap--1s2s1------|
D|-2----2-tap--2----2-tap--2------------|-0------tap--0------tap--0----------|
A|-0------tap--0------tap--0------------|--------tap---------tap-------------|
E|--------tap---------tap---------------|--------tap---------tap-------------|
   v    ^      v    ^      v              v    ^      v    ^      v

                  AM7                                      DM7     
e|------0-tap-------0-tap---------------|------2-tap-------2-tap-------------|
B|-2----2-tap--2----2-tap--2------------|-1s2--2-tap--1s2--2-tap--1s2s1------|
G|-0h1--1-tap--0h1--1-tap--0h1p0--------|-1s2--2-tap--1s2--2-tap--1s2s1------|
D|-2----2-tap--2----2-tap--2------------|-0------tap--0------tap--0----------|
A|-0------tap--0------tap--0------------|--------tap---------tap-------------|
E|--------tap---------tap---------------|--------tap---------tap-------------|
   v    ^      v    ^      v              v    ^      v    ^      v

Verse 1:


Guitar 1: Same as intro tabs

Guitar 2:

    AM7 (let the chord ring)
e|---0-----------------------------------------------------------------------|
B|---2-----------------------------------------------------------------------|
G|---1-----------------------------------------------------------------------|
D|---2-----------------------------------------------------------------------|
A|---0-----------------------------------------------------------------------|
E|---------------------------------------------------------------------------|
     ^

Nabuhay muli ang damdamin
Nang magtagpo ang landas natin
Kay tagal nating di nagkita
Binibining kay ganda, kumusta ka?


Verse 2:


Guitar 1: Same as verse 1

Guitar 2: Same as verse 2

Wala ka pa ring pinagbago
Kinikilig pa rin pag tinititigan mo
Sa kilos mong mapang akit
Mga balahibo ko'y tumitindig


Refrain: (just feel the strumming pattern of the song)  

     Bm7                     C#m7
Kung dati'y di ko nagawa ang magtapat
   Bm7                           D    E
Ngayon handa na kong gawin ang nararapat

Chorus:

            DM7                      C#m7                      F#m7
e|----------5-------------|----------4--------------|----------9-------------|
B|----------7-------------|----------5--------------|----------10------------|
G|----------6--(x8)-------|----------4--(x4)--------|----------9---(x4)------|
D|----------7-------------|----------6--------------|----------11------------|
A|----------5-------------|----------4--------------|----------9-------------|
E|------------------------|-------------------------|------------------------|     
Di ko na palalampasin ang pagkakataon
      
      DM7                C#m7      F#m7
Di na kita iiwasan pa hindi tulad noon
      DM7                       C#m7  F#m7
Di ko na palalampasin ang pagkakataon

            Bm7                      C#m7                      F#m7
e|----------2-------------|-------------------------|----------2-------------|
B|----------3-------------|-------------------------|----------2-------------|
G|----------2--(x4)-------|-------------2-----------|----------2-------------|
D|----------4-------------|--------2h4--------------|----------2-------------|
A|----------2-------------|---2h4-------------------|----------4-------------|
E|------------------------|-------------------------|----------2-------------|  
Upang sabihin na mahal na mahal kita

Instrumental:

Guitar 1:

e|--------------------------------2------------------------------------------|
B|---------------2-3p2-----2-3-5-----5--3-2h3p2-----2------------------------|
G|------2-1h2-4---------4------------------------4-----4-2-----2s4s2--1s2s1--|
D|-2-4------------------------------------------------------4----------------|
A|---------------------------------------------------------------------------|
E|---------------------------------------------------------------------------|

e|---------------------------------------------------------------------------|
B|------------------------------------------7-7--7-9-9~----------------------|
G|-----------------2-----2s4-4s6-6--9-9--9-----------------------------------|
D|-2--2s4---2-2h4-----4------------------------------------------------------|
A|---------------------------------------------------------------------------|
E|---------------------------------------------------------------------------|


Guitar 2:

e|-4-----------------------------7-----|-5-----------------------------------|
B|-5-----------------------------7-----|-7-----------------------------------|
G|-6-----------------------------6-----|-6-----------------------------------|
D|-7-----------------------------7-----|-7-----------------------------------|
A|-------------------------------------|-5-----------------------------------|
E|-------------------------------------|-------------------------------------|
   v                             v       v


e|-4-----------------------------7-----|-5-------12--------------------------|
B|-5-----------------------------7-----|-7-------10--------------------------|
G|-6-----------------------------6-----|-6-------9---------------------------|
D|-7-----------------------------7-----|-7-----------------------------------|
A|-------------------------------------|-5-----------------------------------|
E|-------------------------------------|-------------------------------------|
   v                             v       v       v                      

Verse 3:

Guitar 1:

             
e|-------------------------------------|-------------------------------------|
B|-------------------------------------|-------------------------------------|
G|-------------------------------------|-------------------------------------|
D|---------------6---------------------|-----------------7-------------------|
A|---------------7-(x16)---------------|-----------------7-(x16)-------------|
E|---------------5---------------------|-----------------5-------------------|
(This is palm muted and has a very low volume, strum it alternately)


Guitar 2:


e|-4-----------------------------7-----|-5-----------------------------------|
B|-5-----------------------------7-----|-7-----------------------------------|
G|-6-----------------------------6-----|-6-----------------------------------|
D|-7-----------------------------7-----|-7-----------------------------------|
A|-------------------------------------|-5-----------------------------------|
E|-------------------------------------|-------------------------------------|
   v                             v       v


e|-4-----------------------------7-----|-5-------12--------------------------|
B|-5-----------------------------7-----|-7-------10--------------------------|
G|-6-----------------------------6-----|-6-------9---------------------------|
D|-7-----------------------------7-----|-7-----------------------------------|
A|-------------------------------------|-5-----------------------------------|
E|-------------------------------------|-------------------------------------|
   v                             v       v       v                      
        

Naglakas loob ako na lumapit
(Ang pisngi mo'y namumula)
Upang marinig ang malambing mong tinig
Nang makita kang lumalapit
Tibok ng puso koy bumibilis


Refrain:
  Bm7                  C#m7
Noon ay hindi para sa isat isa
  Bm7                          D     E
Ngayon tadhana na ang syang nagdidikta


Chorus:

            DM7                      C#m7                      F#m7
e|----------5-------------|----------4--------------|----------9-------------|
B|----------7-------------|----------5--------------|----------10------------|
G|----------6--(x8)-------|----------4--(x4)--------|----------9---(x4)------|
D|----------7-------------|----------6--------------|----------11------------|
A|----------5-------------|----------4--------------|----------9-------------|
E|------------------------|-------------------------|------------------------|     
Di ko na palalampasin ang pagkakataon
      
      DM7                C#m7      F#m7
Di na kita iiwasan pa hindi tulad noon
      DM7                       C#m7  F#m7
Di ko na palalampasin ang pagkakataon

            Bm7                      C#m7                      F#m7
e|----------2-------------|-------------------------|----------2-------------|
B|----------3-------------|-------------------------|----------2-------------|
G|----------2--(x4)-------|-------------2-----------|----------2-------------|
D|----------4-------------|--------2h4--------------|----------2-------------|
A|----------2-------------|---2h4-------------------|----------4-------------|
E|------------------------|-------------------------|----------2-------------|  
Upang sabihin na mahal na mahal kita


Bridge:

Guitar 1:
(Note: The chords above the tab of guitar 1 are the chords from guitar 2, not from the tabs)
              
     Bm7       C#m7     Bm7      F#m7   Em     DM7   C#m7    Bm7      C#m7
e|----------|-------|----------|-------------------------|--------|----------|
B|----------|-------|----------|-------------------------|--------|----------|
G|--11--11\-|-9--9/-|--11--11/-|-14-----13-----9------6\-|-4---4/-|-6--6/----|
D|--11--11\-|-9--9/-|--11--x---|-x-(x3)-x-(x3)-x-(x3)-x\-|-4---4/-|-6--6/----|
A|--9---9-\-|-7--7/-|--9---9-/-|-12-----11-----7------4\-|-2---2/-|-4--4/----|
E|----------|-------|----------|-------------------------|--------|----------|
   
     Bm7           C#m7          Bm7        C#m7       DM7          E7
e|--------|------------------|----------|----------|---------|---------------|
B|--------|------------------|----------|----------|---------|---------------|
G|--7--7/-|-9--6-6-6---------|-11-----/-|-13-----/-|-14------|-13-----\------|
D|--7--7/-|-9--------7--7s9\-|-x--(x6)/-|-x--(x6)/-|-x--(x3)-|-x--(x3)\------|
A|--5--5/-|-7----------------|-9------/-|-11-----/-|-12------|-11-----\------|
E|--------|------------------|----------|----------|---------|---------------|

Guitar 2:

          Bm7       C#m7
Ngayon nandito ka muli
        Bm7             F#m7  Em  DM7  C#m7 
Pangako ko ikaw lang ang iibigin
     Bm7          C#m7   
Kung pwede lang naman, (kung pwede lang naman)
     Bm7          C#m7
Kung pwede lang naman
     Bm7                            C#m7     DM7  E7
Kung pwede lang naman hanggang sa huli


Chorus:

            DM7                      C#m7                      F#m7
e|----------5-------------|----------4--------------|----------9-------------|
B|----------7-------------|----------5--------------|----------10------------|
G|----------6--(x8)-------|----------4--(x4)--------|----------9---(x4)------|
D|----------7-------------|----------6--------------|----------11------------|
A|----------5-------------|----------4--------------|----------9-------------|
E|------------------------|-------------------------|------------------------|     
Di ko na palalampasin ang pagkakataon
      
      DM7                C#m7      F#m7
Di na kita iiwasan pa hindi tulad noon
      DM7                       C#m7  F#m7
Di ko na palalampasin ang pagkakataon

            Bm7                      C#m7                      F#m7
e|----------2-------------|-------------------------|----------2-------------|
B|----------3-------------|-------------------------|----------2-------------|
G|----------2--(x4)-------|-------------2-----------|----------2-------------|
D|----------4-------------|--------2h4--------------|----------2-------------|
A|----------2-------------|---2h4-------------------|----------4-------------|
E|------------------------|-------------------------|----------2-------------|  
Upang sabihin na mahal na mahal kita


Outro:

            DM7                      C#m7                      F#m7
e|----------5-------------|----------4--------------|----------9-------------|
B|----------7-------------|----------5--------------|----------10------------|
G|----------6--(x8)-------|----------4--(x4)--------|----------9---(x4)------|
D|----------7-------------|----------6--------------|----------11------------|
A|----------5-------------|----------4--------------|----------9-------------|
E|------------------------|-------------------------|------------------------|        
Mahal kita
        DM7     C#m7  F#m7
Mahal kita
        DM7     C#m7  F#m7
Mahal kita

            Bm7                      C#m7                      F#m7
e|----------2-------------|-------------------------|----------2-------------|
B|----------3-------------|-------------------------|----------2-------------|
G|----------2--(x4)-------|-------------2-----------|----------2-------------|
D|----------4-------------|--------2h4--------------|----------2-------------|
A|----------2-------------|---2h4-------------------|----------4-------------|
E|------------------------|-------------------------|----------2-------------|  


Ending:

e|--9-7------------------9---------------------------------------------------|
B|-------10-9--9h10p9-7------------------------------------------------------|
G|--------------------------8-9-6-8----6-------------------------------------|
D|-----------------------------------9----7-9--6s7---------------------------|
A|--------------------------------------------------9------------------------|
E|---------------------------------------------------------------------------|

(This is played fast)
e|---------------------------------------------------------------------------|
B|---------------------7-----------------------------------------------------|
G|---------------6h9-----8~---6h8-9--8p6----------6--------------------------|
D|-------6h7h9----------------------------9--7h9-----9p7p6-------------------|
A|--7h9-----------------------------------------------------9---7s9~---------|
E|---------------------------------------------------------------------------|

~FADE






This is my first tab, so bear with it! xD
Please comment and rate.. :)

************************************

| v   strum downward
| ^   strum upward
| s   slide to
| \   slide down
| /   slide up
| h   hammer-on
| p   pull-off
| ~   vibrato
| +   harmonic
| x   Mute note
| b   Bend
| pb  Pre-bend
| br  Bend release
| pbr Pre-bend release
| brb Bend release bend

************************************





Comments


Popular Shamrock tabs & chords
Haplos Chords
Hold On 2 Chords
Ikaw Lang Chords
Ikaw Lang 1 Chords
Naaalala Ka 2 Chords
Paano 2 Chords
Waiting For Summer Chords
Haplos Ukulele
I Wanna Be Ukulele
Ngiti Ukulele


Song lyrics



↑ Back to top | Tablatures and chords are parodies/interpretations of the original songs. You may use it for private study, scholarship, research or language learning purposes only
© 2014 AZChords.com Contact us | Privacy policy | DMCA | Add/correct tabs | Request tabs | Top 50 tabs