>
 >
Alipin

Alipin Bass Tabs

Shamrock - Alipin chords, tabs, tablatures, lyrics

Guitar lessons | Add/correct | Request | Top 50 tabs Artists:  A B C D E F G H I J K L M N O P Q R S T U V W X Y Z 0-9

Alipin Bass Tabs – Shamrock

CD, Sheet music, Poster

Do you like Alipin? Share with your friends now
Bass TabsChordsChords v2TabsTabs v2Tabs v3Tabs v4Tabs v5Ukulele
intro: G-Bm-CM7

verse 1

e|-------------------------------------------------------------------------|
B|-------------------------------------------------------------------------|
G|-------------------------------------------------------------------------|
D|---5----0-0------7-7----0----5---7-7s10----9--7-7----5-5---7-7---0-------|
A|-------------------------------------------------------------------------|
E|-------------------------------------------------------------------------|

e|-------------------------------------------------------------------------|
B|-------------------------------------------------------------------------|
G|-------------------------------------------------------------------------|
D|---5----0-0------7-7----0----5---7-7s10----9--7-7----5-5---7-7---9-------|
A|-------------------------------------------------------------------------|
E|-------------------------------------------------------------------------|

e|-------------------------------------------------------------------------|
B|-------------------------------------------------------------------------|
G|-------------------------------------------------------------------------|
D|---0--5--7--5--0--9-9--7-7--7--5----5--7--5s10--5---0--5s10---9-9-5-5---7|
A|-------------------------------------------------------------------------|
E|-------------------------------------------------------------------------|

chorus:
e|-------------------------------------------------------------------------|
B|-------------------------------------------------------------------------|
G|-------------------------------------------------------------------------|
D|---5-5---5--12-12-12-12-12--10--9--10--12--------------------------------|
A|-------------------------------------------------------------------------|
E|-------------------------------------------------------------------------|

e|-------------------------------------------------------------------------|
B|-------------------------------------------------------------------------|
G|-------------------------------------------------------------------------|
D|---9--10--12-12-12-12--12--10--9--10--9----------------------------------|
A|-------------------------------------------------------------------------|
E|-------------------------------------------------------------------------|

e|-------------------------------------------------------------------------|
B|-------------------------------------------------------------------------|
G|-------------------------------------------------------------------------|
D|---9--7--5--0--5--0--7--9-9--0-0---10--9---7-7--5-5--7-7-----------------|
A|-------------------------------------------------------------------------|
E|-------------------------------------------------------------------------|

  (repeat intro chords)

verse 2

e|-------------------------------------------------------------------------|
B|-------------------------------------------------------------------------|
G|-------------------------------------------------------------------------|
D|----5-5--0--5--9-9--7--7---5--7--7--0------------------------------------|
A|-------------------------------------------------------------------------|
E|-------------------------------------------------------------------------|


e|-------------------------------------------------------------------------|
B|-------------------------------------------------------------------------|
G|-------------------------------------------------------------------------|
D|---5--77s10--9-9--7---7--9--5---7s10--9-9--7-7--5-5--7-7-----------------|
A|-------------------------------------------------------------------------|
E|-------------------------------------------------------------------------|


e|-------------------------------------------------------------------------|
B|-------------------------------------------------------------------------|
G|-------------------------------------------------------------------------|
D|---0-0--5--7--5--0-0---9-9-7-7--5--5--7--5--5s10--9--7--7--5-5-77--------|
A|-------------------------------------------------------------------------|
E|-------------------------------------------------------------------------|

(repeat chorus)
Adlib:
I ------------------------------------------------------------- I
I ------------------------------------------------------------- I
I ----------------------------------------------5p4-------4---- I
I --5-5-5-0-0-7-75h7-7/9-9-9-7-7-5-5-5/7-75h7-----5-5/7---5-- I
I ------------------------------------------------------------- I
I ------------------------------------------------------------- I


I -------------------------------------------- I
I -------------------------------------------- I
I -----5p4-----------------5p4---------------- I
I 5h7-----5-5/7-5-7p5p4h5-----5/7-5-5h7-7---- I
I -------------------------------------------- I
I -------------------------------------------- I

bridge:

e|-------------------------------------------------------------------------|
B|-------------------------------------------------------------------------|
G|-------------------------------------------------------------------------|
D|---9--7--5--0--55s10--9--5--7-7--5---------------------------------------|
A|-------------------------------------------------------------------------|
E|-------------------------------------------------------------------------|


e|-------------------------------------------------------------------------|
B|-------------------------------------------------------------------------|
G|-------------------------------------------------------------------------|
D|---0--5--0--5s10--9--5--7--5--7--5--5s12---------------------------------|
A|-------------------------------------------------------------------------|
E|-------------------------------------------------------------------------|

(repeat chorus)tapos ito na.......



e|-------------------------------------------------------------------------|
B|-------------------------------------------------------------------------|
G|-------------------------------------------------------------------------|
D|---5--5--7-7s12-12-12-12-12--10---9--10--12------------------------------|
A|-------------------------------------------------------------------------|
E|-------------------------------------------------------------------------|


e|-------------------------------------------------------------------------|
B|-------------------------------------------------------------------------|
G|-------------------------------------------------------------------------|
D|---9-9--10--12--12--12--12-12--10-9--10--12------------------------------|
A|-------------------------------------------------------------------------|
E|-------------------------------------------------------------------------|

e|-------------------------------------------------------------------------|
B|-------------------------------------------------------------------------|
G|-------------------------------------------------------------------------|
D|---9-9--10--9--5--0--12--9--5--0--5---9--10--12--------------------------|
A|-------------------------------------------------------------------------|
E|-------------------------------------------------------------------------|

e|-------------------------------------------------------------------------|
B|-------------------------------------------------------------------------|
G|-------------------------------------------------------------------------|
D|---10--9--5--00--10--9--5--7-7--5----------------------------------------|
A|-------------------------------------------------------------------------|
E|-------------------------------------------------------------------------|








dedicted po ito sa lahat ng hunters at bandaritas......
especially kay anne





Comments


Popular Shamrock tabs & chords
Haplos 1 Chords
Hold On Chords
Hold On 1 Chords
Naaalala Ka Chords
Ngiti Chords
Alipin 2 Tabs
Alipin Intro Tabs
Kaba Tabs
Nandito Lang Ako Ukulele
Waiting For Summer Ukulele


Song lyrics



↑ Back to top | Tablatures and chords are parodies/interpretations of the original songs. You may use it for private study, scholarship, research or language learning purposes only
© 2014 AZChords.com Contact us | Privacy policy | DMCA | Add/correct tabs | Request tabs | Top 50 tabs