>
 >
Haplos Intro

Haplos Intro Guitar Tabs

Shamrock - Haplos Intro chords, tabs, tablatures, lyrics

Guitar lessons | Add/correct | Request | Top 50 tabs Artists:  A B C D E F G H I J K L M N O P Q R S T U V W X Y Z 0-9

Haplos Intro Guitar Tabs – Shamrock

CD, Sheet music, Poster

Do you like Haplos Intro? Share with your friends now
Tabs
he!!! intro palang mga tol!! sa susunod buo n yan! lahat naman ng kanta may intro diba!

medyo mababa pa ng kalidad pero okei yan! hehe!!

intro:

El-4-4-----------4-------12-----4---2------34---2----1----4h5-l
Bl---------54-----2-3-----3---2----1---1-----0-----------------l
Gl----------------------------------------2--------------------l
dl-------------------------------------------------------------l
Al-------------------------4----1-----------------0------------l
El ----------------------------23---------1212p2---------------l

e|-----0----0---------------------------------------------|
B|-----2---------0----2-----------------------------------|
G|-----2---2---2----2-------------------------------------|
D|-----2--------------------------------------------------|
A|-----0---------0----------------------------------------|
E|--------------------------------------------------------|

VERSE I (kayo na po bahala sa timing.)

      A9          E       F#m?
e|-----0----0---------------------------------------------|
B|-----0----------0----0---0---0---0---0------------------|
G|-----2--2---2---1--1-----2--2-2--2--2-2-----------------|
D|-----2--------------------------------------------------|
A|-----0--------------------------------------------------|
E|----------------0--------2-------2----------------------|
     Mahal...          hanggang kailan...

      Bm                          E
e|---------0------------0-------------0--------0----------|
B|----3------2-----3------2-------0-----2--0-----2--------|
G|----4--4------4--4--4------4----1--1-----1--1-----------|
D|--------------------------------------------------------|
A|----2------------2--------------------------------------|
E|--------------------------------0--------0--------------|         
   Maghihintay ang puso ko...    Nangungulila sa iyo

(parehas lang po.)
 
I hope na magustu han nyo enjoy!!
your friend uriel z diega of payatas!! yeh!! para ke monique!ng phase 2!! ilove you mua!!





Comments


Popular Shamrock tabs & chords
Naaalala Ka 2 Chords
Okey Lang Chords
Paano 2 Chords
Sana Chords
Ngiti Tabs
I Wanna Be Ukulele
Paano Ukulele
Pagkakataon Ukulele
Sana Ukulele
Sana 2 Ukulele


Song lyrics



↑ Back to top | Tablatures and chords are parodies/interpretations of the original songs. You may use it for private study, scholarship, research or language learning purposes only
© 2014 AZChords.com Contact us | Privacy policy | DMCA | Add/correct tabs | Request tabs | Top 50 tabs