» » »

Shamrock, Ngiti Tabs (ver.1)

Artists:  A B C D E F G H I J K L M N O P Q R S T U V W X Y Z # 

Ngiti Tabs (ver.1)

Shamrock Tabs
 Rating:
4/5 (4 votes)
Ngiti lessons Tabs too difficult? Try these video lessons and learn fast
1
                
Intro: F-Bb-F-Bb
(plucking)
e-------8---|I
b----8------|I
g--10-10----|I
d-----------|I
a-----------|I
E-----------|I
(11x)

bass:
after four times above:

e---------------------------------------------------------|I
b---------------------------------------------------------|I
g---------------------------------------------------------|I
d---------------------------------------------------------|I
a---------------------------------------------------------|I
E--1-1-1--6-6-6-6-6-6-6--1-1-1-1-1-1-1--6-6-6-6-6-6-6-----|I

verse:

e----------------------------------------------------------------|I
b----------------------------------------------------------------|I
g----------------------------------------------------------------|I
d----------------------------------------------------------------|I
a--3-3-3-3-3-3--8-8-8-8-8-8-8--3-3-3-3-3-3-3--8-8-8-8-8-8-8------|I
E--1-1-1-1-1-1--6-6-6-6-6-6-6--1-1-1-1-1-1-1--6-6-6-6-6-6-6------|I
(2x)

 F             Bb
Nalalabuan ka kahihirapan ka
    F             Bb
At nag-aapoy ang damdamin
       F                    Bb            F         Bb
Hindi maintindihan hindi maiwasan ang naglalaro sa isip

refrain:

bass:

e---------------------------------------------------------------|I
b---------------------------------------------------------------|I
g---------------------------------------------------------------|I
d---------------------------------------------------------------|I
a---------------------------------------------------------------|I
E--3-3-3-3-3-3-3--6-6-6-6-6-6-6--3-3-3-3-3-3-3--6-6-6--8-8------|I

Gm             Bb      Gm          Bb-C
wag kang mag-alala hindi nauubos ang pag-asa

Koro:

e-------8---|I
b----8------|I
g--10-10----|I
d-----------|I
a-----------|I
E-----------|I
(16x)

F           Bb
Sana naman ngumiti
        F                 Bb
Lagi na namang gusot ang iyong mga labi
F           Bb
Sana naman ngumiti
          F           Bb                 F-Bb-F-Bb
Wag kang matakot na harapin ang buhay natin...

e-------8---|I
b----8------|I
g--10-10----|I
d-----------|I
a-----------|I
E-----------|I
(8x)
           F                 Bb
wag mong hahayaan na ikaw ay mawalan
    F          Bb
ng pagmamahal sa sarili
            F              Bb
Ba't di mo lang tawanan maayos din yan
       F          Bb
Ako'y nasa iyong tabi...

refrain:
Gm              Bb   Gm            Bb     C
bukas, lilipas yan lahat ng bagay may dahilan...

koro:
F           Bb
Sana naman ngumiti
        F                 Bb
Lagi na namang gusot ang iyong mga labi
F           Bb
Sana naman ngumiti
          F           Bb          C(hold)C(hold)
Wag kang matakot na harapin ang buhay

Bridge:
      Bb       Gm              Bb
Tama na namamaga na ang iyong mata
              Bb       Gm   Bb     C
Punasan ang luha sa iyong maga ng mukha...

(strumming)
e--5555555-I-6666666-I-8888888-I-6666666-----|I
b--6666666-I-6666666-I-8888888-I-6666666-----|I
g--5555555-I-7777777-I-9999999-I-7777777-----|I
d----------I---------I---------I-------------|I
a----------I---------I---------I-------------|I
E----------I---------I---------I-------------|I
(2x)

koro:
F           Bb
Sana naman ngumiti
        F                 Bb
Lagi na namang gusot ang iyong mga labi
F           Bb
Sana naman ngumiti
          F           Bb
Wag kang matakot na harapin ang buhay
F           Bb
Sana naman ngumiti
        F                 Bb
Lagi na namang gusot ang iyong mga labi
F           Bb
Sana naman ngumiti
          F           Bb                 F
Wag kang matakot na harapin ang buhay natin...
 Bb          F           Bb
Sana naman, sana naman ngumiti
F            Bb          F           Bb
Sana naman, sana naman, sana naman ngumiti...

(strumming)                                (Hold)
e--5555555-I-6666666-I-8888888-I-6666666-I---5---|I
b--6666666-I-6666666-I-8888888-I-6666666-I--6----|I
g--5555555-I-7777777-I-9999999-I-7777777-I-5-----|I
d----------I---------I---------I---------I-------|I
a----------I---------I---------I---------I-------|I
E----------I---------I---------I---------I-------|I

[fin]

====just want to greet girlie valdenor of olongapo city...ung gitara nya ginamit ko kaya 
ko song na ito...keep on rocking!
            
Submit corrections

comments powered by Disqus
↑ Back to top | Shamrock Tabs for Ngiti. Lyrics for acoustic guitar and electric guitar. 1 Tablatures and chords are parodies/interpretations of the original songs. You may use it for private study, scholarship, research or language learning purposes only