» » »

Anarchy In The U.K. Tabs (ver.1)

Artists:  A B C D E F G H I J K L M N O P Q R S T U V W X Y Z # 

Anarchy In The U.K. Tabs (ver.1)

Sex Pistols
Rating:
0/5 (0 votes)

Hard to play? Try these video lessons and learn fast.
                ANARCHY IN UK
SEX PISTOLS
(Jones,Vicious,Cook,Rotten)

Intro

E-------------------------------------------------------------------------
B-------------------------------------------------------------------------
G--12-12-12-12-12-12-12-12-12-12-12-12-12-12----10-10-10-10-10-10-10-10---
D--10-10-10-10-10-10-10-10-10-10-10-10-10-10-----8--8--8--8--8--8--8--8---
A--10-10-10-10-10-10-10-10-10-10-10-10-10-10-----8--8--8--8--8--8--8--8---
E-------------------------------------------------------------------------


E----------------|
B----------------|
G---9---7--------|
D---9---7---5----|
A---7---5---5----|
E-----------3----|

Verse 
E-----------------------------------|
B-----------------------------------|
G-----------------------------------|
D---5-5-5-5-5-5-5-5-5-5-5-10-9------|        Repeat x4
A---5-5-5-5-5-5-5-5-5-5-5-10-9------|    
E---3-3-3-3-3-3-3-3-3-3-3--8-7------|


Chorus

E------------------------------------------------------------------------
B------------------------------------------------------------------------
G---12-12-12-12-12-12-12-12-12-12-12-12-12-12-10-10-10-10-10-10-10-10----
D---12-12-12-12-12-12-12-12-12-12-12-12-12-12-10-10-10-10-10-10-10-10----
A---10-10-10-10-10-10-10-10-10-10-10-10-10-12--8--8--8--8--8--8--8--8----
E------------------------------------------------------------------------

E-------------------------------------------------------------------------|
B-------------------------------------------------------------------------|
G---9---7-----------------------------------------------------------------|
D---9---7---5-5-5-5-5-5-5-5-5-5-5-10-9-5-5-5-5-5-5-5-5-5-10-10-10-10-10-10|
A---7---5---5-5-5-5-5-5-5-5-5-5-5-10-9-5-5-5-5-5-5-5-5-5-10-10-10-10-10-10|
E-----------3-3-3-3-3-3-3-3-3-3-3--8-7-3-3-3-3-3-3-3-3-3--8--8--8--8--8--8|

REPEAT VERSE

REPEAT CHORUS

First guitar solo:

E---------12-----------------------14------------            
B---13-13----13-13-13-13-----15-15----15-15-15-15
G------------------------------------------------  Repeat x3
D------------------------------------------------
A------------------------------------------------
E------------------------------------------------

E---------12-----------------------|
B---13-13----13-13-13--------13----|
G----------------------------14----|
D----------------------------------|
A----------------------------------|
E----------------------------------|

REPEAT VERSE

REPEAT CHORUS

Second guitar solo:

E---2-2-2-3-2-2-2-2--|
B---3-2-3-4-3-2-3-3--|
G---2-0-3-3-2-0-2-2--|    Repeat x4
D--------------------|  
A--------------------|
E--------------------|


REPEAT VERSE

REPEAT CHORUS X4



GOOD LUCK!!!!!!!!
            
Hard to play? Try these video lessons and learn fast. | Correct




comments powered by Disqus
↑ Back to top | Tablatures and chords are parodies/interpretations of the original songs. You may use it for private study, scholarship, research or language learning purposes only