>
 >
New York

New York Guitar Tabs

Sex Pistols - New York chords, tabs, tablatures, lyrics

Guitar lessons | Add/correct | Request | Top 50 tabs Artists:  A B C D E F G H I J K L M N O P Q R S T U V W X Y Z 0-9

New York Guitar Tabs – Sex Pistols

CD, Sheet music, Poster

Do you like New York? Share with your friends now
Bass TabsDrum TabsTabsTabs v2
The Sex Pistols - New York


By Peter	

I have everything in this song, except the outro solo.

~ = let ring
p.m. = palm mute
/ = slide


Intro:

e---------------------- ----------------------------
B---------------------- ----------------------------
G---2~-4-4--9~---9~---- ---9~-7~-6~-4~-2~-4~--------  pickslide
D---2~-4-4--9~---9~---- ----------------------------
A---0~-2-2--7~---7~---- ----------------------------
E---------------------- ----------------------------


Verse:
			     6x
e------------------------ ------------------------------------------
B------------------------ ------------------------------------------
G------------------------ ---------------------7-7-7-7--------------
D---9-9-9-9-7-7-7-7----- ---9-9-9-9-7-7-7-7--7-7-7-7-9-9-9-9-----
A---9-9-9-9-7-7-7-7----- ---9-9-9-9-7-7-7-7-5-5-5-5-9-9-9-9-----
E---7-7-7-7-5-5-5-5----- ---7-7-7-7-5-5-5-5-----------7-7-7-7-----
p.m


Chorus:

e--------------------------------------------- 
B--------------------------------------------- 
G---9-9-9-9-9-9-9-9-9-9~---2~-4-4~--99~---- 
D---9-9-9-9-9-9-9-9-9-9~---2~-4-4~--99~---- 
A---7-7-7-7-7-9-7-7-7-7~---0~-2-2~--77~---- 
E--------------------------------------------- 

			   3x
e---------------------- ----------
B---------------------- ----------
G---------------------- ----------
D---9-9-9-9-7-7-7-7--- ----9~----
A---9-9-9-9-7-7-7-7--- ----9~----
E---7-7-7-7-5-5-5-5--- ----7~----


Verse 2:

e------------------- ------------------------------------------------
B------------------- ------------------------------------------------
G---9---7---4------- ---9---7---12-12-12-12-12-12-12-12-12-12-12-----
D---------------5--- ------------------------------------------------
A------------------- ------------------------------------------------
E------------------- ------------------------------------------------

e------------------- ---------------------------------------
B------------------- ---------------------------------------
G---9---7---4------- ---------2~-2-2-2-2-2-2-2-2-2-2-2-2----
D---------------5--- ----5~---2~-2-2-2-2-2-2-2-2-2-2-2-2----
A------------------- ----5~---0~-0-0-0-0-0-00-0-000-0----
E------------------- ----3~---------------------------------
					p.m
                     3x
e---------------------- --------
B---------------------- --------
G---------------------- --------
D---9-9-9-9-7-7-7-7--- ---9~---
A---9-9-9-9-7-7-7-7--- ---9~---
E---7-7-7-7-5-5-5-5--- ---7~---


Bridge:
			   8x
e---------------------- ----------
B---7-7-7---5-5-5---- ----------
G---9-9-9---7-7-7---- ---------- 
D---9-9-9---7-7-7---- ---9~~~---  pickslide
A---7-7-7---5-5-5---- ----------
E---------------------- ----------


Chorus 2:
							    3x
e----------------------------------- ----------- ----------
B----------------------------------- ----------- ----------
G---9-9-9-9-9-9-9-9-9-9~---2~-2~-- ----------- --2~-2~---
D---9-9-9-9-9-9-9-9-9-9~---2~-2~-- --7/6-6-6-- --2~-2~---
A---7-7-7-7-7-9-7-7-7-7~---0~-0~-- --7/6-6-6-- --0~-0~---
E----------------------------------- --5/4-4-4-- ----------

						     8x
e------------------- ----------------------
B------------------- ----------------------
G---9~--9-9--9~---- ------------9-9-9-9---
D---9~--9-9--9~---- ---9-9-9-9--9-9-9-9---
A---7~--7-7--7~---- ---9-9-9-9-7-7-7-7---
E------------------- ---7-7-7-7------------


I havent tabbed the outro solo yet.


Song Structure:

1. Intro
2. Verse
3. Chorus
4. Verse
5. Chorus
6. Verse 2
7. Bridge
8. Verse
9. Chorus 2
10. Outro solo





Comments


Popular Sex Pistols tabs & chords
Lonely Boy Bass Tabs
No Feelings 2 Bass Tabs
No Lip Bass Tabs
Silly Thing Bass Tabs
No One Is Innocent Chords
Who Killed Bambi Chords
Belsen Was A Gas 1 Tabs
Great Rock N Roll Swindle Tabs
Jingle Bells Tabs
Substitute Tabs


Song lyrics



↑ Back to top | Tablatures and chords are parodies/interpretations of the original songs. You may use it for private study, scholarship, research or language learning purposes only
© 2014 AZChords.com Contact us | Privacy policy | DMCA | Add/correct tabs | Request tabs | Top 50 tabs