» » »

Sex Pistols, Anarchy In The U.K. Bass tabs (ver.2)

Artists:  A B C D E F G H I J K L M N O P Q R S T U V W X Y Z # 

Anarchy In The U.K. Bass tabs (ver.2)

Sex Pistols Tabs
Rating:
0/5 (0 votes)
Anarchy In The U.K. lessons Tabs too difficult? Try these video lessons and learn fast
                "(1)
This isnt a tab for the Never mind the bollocks version, I've tried to do a tab 
similar to how Matlock played it.


Intro- 
|--------------------------------------------------------|
|----5---5---5---5-------------3---3---3-----2-2---0-0---|
|------------------------------------------3-----3-------|
|--3---3---3---3---3---------1---1---1---1---------------|

|--------------------|
|--------------------|
|--2-3-3-3-3-3-3-3---|
|--------------------|  x4

Verse-
|------------------------------------|
|--------------------------3-0-2-0---|
|--3-3-0-3-3-3-0-3-3-3-0-3-----------|
|------------------------------------|  x3

|------------------------------------|
|--------------------------2-2-4-4---|
|--3-3-0-3-3-3-0-3-3-3-5-5-----------|
|------------------------------------|

Chorus-
|--------------------------------------------------------------------|
|--5-5-5-5-5-5-5-5-5-5-5-5-5-5-5-5-3-3-3-3-3-3-3-0-2-2-2-2-0-0-0-0---|
|--------------------------------------------------------------------|
|--------------------------------------------------------------------|

|-------------------------------------------------------------------|
|--------------------------3-0-2-0-------------3--5-5-5-5-5-5-5-5---|
|--3-3-0-3-3-3-0-3-3-3-0-3---------3-3-0-3-3-5----------------------|
|-------------------------------------------------------------------|

Verse-
|------------------------------------|
|--------------------------3-0-2-0---|
|--3-3-0-3-3-3-0-3-3-3-0-3-----------|
|------------------------------------|  x3

|------------------------------------|
|--------------------------2-2-4-4---|
|--3-3-0-3-3-3-0-3-3-3-5-5-----------|
|------------------------------------|

Chorus-
|--------------------------------------------------------------------|
|--5-5-5-5-5-5-5-5-5-5-5-5-5-5-5-5-3-3-3-3-3-3-3-0-2-2-2-2-0-0-0-0---|
|--------------------------------------------------------------------|
|--------------------------------------------------------------------|

|--------------------------------------------------------------------|
|--------------------------3-0-2-0-----------------------------------|
|--3-3-0-3-3-3-0-3-3-3-0-3---------3-3-3-3-3-3-3-3-3-3-3-3-3-3-3-3---|
|--------------------------------------------------------------------|

Guitar solo-
|------------------------------------|
|--0-0-0-0-0-0-0-1-2-2-2-2-2-2-2-1---|
|------------------------------------|
|------------------------------------|  x3

|--------------------------------------------------------------------|
|--0-0-0-0-0-0-0-3-5-5-5-5-5-5-5-5-5-5-5-5-5-5-5-5-5-5-5-5-5-5-5-5---|
|--------------------------------------------------------------------|
|--------------------------------------------------------------------|

|--------------------|
|--5---5---5-3-------|
|--------------0-2---|
|--------------------|

Verse-
|------------------------------------|
|--------------------------3-0-2-0---|
|--3-3-0-3-3-3-0-3-3-3-0-3-----------|
|------------------------------------|  

|------------------------------------|
|----------------------------3-5-----|
|--3-3-0-3-3-3-0-3-3-3-0-3-7-----5---|
|------------------------------------|

|------------------------------------|
|--------------------------3-0-2-0---|
|--3-3-0-3-3-3-0-3-3-3-0-3-----------|
|------------------------------------|

|------------------------------------|
|--------------------------2-2-4-4---|
|--3-3-0-3-3-3-0-3-3-3-5-5-----------|
|------------------------------------|

Chorus-
|--------------------------------------------------------------------|
|--5-5-5-5-5-5-5-5-5-5-5-5-5-5-5-5-3-3-3-3-3-3-3-0-2-2-2-2-0-0-0-0---|
|--------------------------------------------------------------------|
|--------------------------------------------------------------------|

|--------------------------------------------------------------------|
|--------------------------3-0-2-0-----------------------------------|
|--3-3-0-3-3-3-0-3-3-3-0-3---------3-3-3-3-3-3-3-3-3-3-3-3-3-3-3-3---|
|--------------------------------------------------------------------|

Guitar solo-
|------------------------------------|
|--------------------------5-0-4-0---|
|--5-5-5-5-5-5-5-5-5-5-5-5-----------|
|------------------------------------|

|------------------------------------|
|--------------------------5-0-4-0---|
|--5-5-0-5-5-5-0-5-5-5-0-5-----------|
|------------------------------------|  x2

Verse-
|------------------------------------|
|--------------------------3-0-2-0---|
|--3-3-0-3-3-3-0-3-3-3-0-3-----------|
|------------------------------------|  

|------------------------------------|
|----------------------------3-5-----|
|--3-3-0-3-3-3-0-3-3-3-0-3-7-----5---|
|------------------------------------|

|------------------------------------|
|--------------------------3-0-2-0---|
|--3-3-0-3-3-3-0-3-3-3-0-3-----------|
|------------------------------------|

|------------------------------------|
|--------------------------2-2-4-4---|
|--3-3-0-3-3-3-0-3-3-3-5-5-----------|
|------------------------------------|

Chorus-
|--------------------------------------------------------------------|
|--5-5-5-5-5-5-5-5-5-5-5-5-5-5-5-5-3-3-3-3-3-3-3-0-2-2-2-2-0-0-0-0---|
|--------------------------------------------------------------------|
|--------------------------------------------------------------------|
                                                                        x4
|--------------------------------------------------------------------|
|--------------------------3-0-2-0-------------------------2-2-4-4---|
|--3-3-0-3-3-3-0-3-3-3-0-3---------3-3-0-3-3-3-0-3-3-3-5-5-----------|
|--------------------------------------------------------------------|
"            
Submit corrections

comments powered by Disqus
↑ Back to top | Sex Pistols Bass for Anarchy In The U.K.. Lyrics for acoustic guitar and electric guitar. Tablatures and chords are parodies/interpretations of the original songs. You may use it for private study, scholarship, research or language learning purposes only