» » »

Sex Pistols, Pretty Vacant Chords (ver.1)

Artists:  A B C D E F G H I J K L M N O P Q R S T U V W X Y Z # 

Pretty Vacant Chords (ver.1)

Sex Pistols Tabs
 Rating:
4/5 (4 votes)
Pretty Vacant lessons Tabs too difficult? Try these video lessons and learn fast
                Tuning:  Standard

FIRST NOTE: I based this on everybody else's chords. But no-one ever 
wrote the lead riffs. Maybe they're not quite right, but they sound ok.

SECOND NOTE: The chords that "Glen Norman Pavan -I'm here, I'm queer, I 
play 5-string bass" post we're really helpful. Thanx a lot.

THIRD NOTE: I usually use power chords cause they're easier to play. But 
I think the Pistols used almost all major chords.

"We're the Pistols… No-one likes us… And we don't care…"

INTRO: 

Main Riff:

A5
e---------------------
B---------------------
G-------2-2-----------
D--------------------2-2-
A-0-0--------0-0------
E---------------------

After that play all A5.

FIRST VERSE: 

A5                  G5                D5 A5
There's no point in asking you'll get no reply
A5       G5    E5    E5 (7th fret)
Just remember: Don't decide
A5     G5          D5      A5
Got no reason it's all too much
A5            E5 (Riff 1)
You'll always find us 
A5          (Riff 2)
Out on lunch

CHORUS:

D5 
We're so pretty
C5
Oh, so pretty
(Main Riff)
We're vacant! (2x)

SECOND VERSE:

A5              G5                 D5      A5
Don't ask us to attend cause we're not all there
A5            G5        E5      E5 (7th fret)
Oh, don't pretend cause I don't care
A5               G5              D5         A5
I don't believe illusions cause too much is real
A5              E5 (Riff 1)
Stop your cheap comments cause 
A5                    (Riff 2)
We know we're for real

CHORUS:
D5 
We're so pretty
C5
Oh, so pretty
(Main riff)
We're vacant! (2x)

D5 
We're so pretty
C5
Oh, so pretty… Ah…
(Main riff)
We're vacant!      

POST CHORUS
G5     N.C.		    A5
Now…   We don't care!

THIRD CHORUS (It's the same thing that first except for the riff)

A5                  G5                D5 A5
There's no point in asking you'll get no reply
A5       G5    E5    E5 (7th fret)
Just remember: Don't decide
A5     G5          D5      A5
Got no reason it's all too much
A5            E5 (Riff 3)
You'll always find us 
A5          (Riff 2)
Out to lunch, we're out on lunch!

CHORUS:

D5 
We're so pretty
C5
Oh, so pretty
(Main riff)
We're vacant! (2x)

D5 
We're so pretty
C5
Oh, so pretty… Ah…
(Main riff)
We're vacant!      (3x)

POST CHORUS
G5     E5		    A5
Now…   We don't care!

ENDING

A5 (Main riff)
Pretty, pretty vacant!

A5 (Main riff)	     (Riff 4)
Pretty, pretty vacant!

A5 (Main riff)		(Riff5)
Pretty, pretty vacant!

A5 (Main riff)	      (Riff 6)
Pretty, pretty vacant!

A5-------------feedback-----A5-A5
We don't care!

RIFF 1:

e--------------------------
B--------------------------
G-------------7-9-7-9b11b9-7-9-
D-------7-9------------------
A-7-9----------------------
E--------------------------

Riff 2: 

e---------------
B---------------
G-7b9-5^7-5^6-5-
D---------------
A---------------
E---------------

Riff 3: 

e-----------------------
B-----------------------
G-9b11b9-7-9b11b9-7-9-9-
D---------------------------------7-7-
A-----------------------
E-----------------------

Riff 4:

e-------------------
B-------------------
G-9b11b9-7-9b11b9-7-
D-------------------
A-------------------
E-------------------

Riff 5:

e-------------------
B-9b11b9-9-9b11b9-7-
G-------------------
D-------------------
A-------------------
E-------------------

Riff 6:

e-------------------
B-10-8-7------------
G-------------10-9-7-9-7-
D-------------------
A-------------------
E-------------------


                \\\\
                ------------------- Razor Blade 1234 --------->
                ////





______________________________________________________
            
Submit corrections

comments powered by Disqus
↑ Back to top | Sex Pistols Chords for Pretty Vacant. Lyrics for acoustic guitar and electric guitar. Tablatures and chords are parodies/interpretations of the original songs. You may use it for private study, scholarship, research or language learning purposes only