» » »

Anarchy In The U.K. Bass tabs (ver.1)

Artists:  A B C D E F G H I J K L M N O P Q R S T U V W X Y Z # 

Anarchy In The U.K. Bass tabs (ver.1)

Sex Pistols
Rating:
0/5 (0 votes)

Hard to play? Try these video lessons and learn fast.
                Intro:
G:|-------------------------------------------------------------------|
D:|--5-5-5-5-5-5-5-5-5-5-5-5-5-5-5-5-3-3-3-3-3-3-3-3-2-2-2-2-0-0-0-0--|
A:|-------------------------------------------------------------------|
E:|-------------------------------------------------------------------|

Pre verse:
G:|-------------------------------------------------------------------|
D:|-------------------------------------------------------------------|
A:|--3-3-0-3-3-3-0-3-3-3-0-3-3-3-0-3-3-3-0-3-3-3-0-3-3-3-0-3-3-3-0-3--|
E:|-------------------------------------------------------------------|

Verse:
G:|-----------------------------------|
D:|--------------------------3-3-2-2--|  3x, then:
A:|--3-3-0-3-3-3-0-3-3-3-0-3----------|
E:|-----------------------------------|

G:|-----------------------------------|
D:|-----------------------------------|
A:|--3-3-0-3-3-3-0-3-3-3-0-3-3-3-0-3--|
E:|-----------------------------------|

Chorus:
G:|-------------------------------------------------------------------|
D:|--5-5-5-5-5-5-5-5-5-5-5-5-5-5-5-5-3-3-3-3-3-3-3-3-2-2-2-2-0-0-0-0--|
A:|-------------------------------------------------------------------|
E:|-------------------------------------------------------------------|

G:|-------------------------------------------------------------------|
D:|--------------------------3-3-2-2----------------------------------|
A:|--3-3-0-3-3-3-0-3-3-3-0-3---------3-3-0-3-3-3-0-3-3-3-0-3-3-3-0-3--|
E:|-------------------------------------------------------------------|

Verse:
G:|-----------------------------------|
D:|--------------------------3-3-2-2--|  3x, then:
A:|--3-3-0-3-3-3-0-3-3-3-0-3----------|
E:|-----------------------------------|

G:|-----------------------------------|
D:|-----------------------------------|
A:|--3-3-0-3-3-3-0-3-3-3-0-3-3-3-0-3--|
E:|-----------------------------------|

Chorus:
G:|-------------------------------------------------------------------|
D:|--5-5-5-5-5-5-5-5-5-5-5-5-5-5-5-5-3-3-3-3-3-3-3-3-2-2-2-2-0-0-0-0--|
A:|-------------------------------------------------------------------|
E:|-------------------------------------------------------------------|

G:|-------------------------------------------------------------------|
D:|--------------------------3-3-2-2----------------------------------|
A:|--3-3-0-3-3-3-0-3-3-3-0-3---------3-3-0-3-3-3-0-3-3-3-0-3-3-3-0-3--|
E:|-------------------------------------------------------------------|


During Solo:
G:|-------------------------------------------------------------------|
D:|-------------------------------------------------------------------|
A:|--5-5-5-5-5-5-5-5-7-7-7-7-7-7-7-7-5-5-5-5-5-5-5-5-7-7-7-7-7-7-7-7--|
E:|-------------------------------------------------------------------|

G:|-------------------------------------------------------------------|
D:|--------------------------------------------------5-5-5-5-5-5-5-5--|
A:|--5-5-5-5-5-5-5-5-7-7-7-7-7-7-7-7-5-5-5-5-5-5-5-5------------------|
E:|-------------------------------------------------------------------|

G:|-------------------------------------------|
D:|--5-5-5-5-5-5-5-5--------------------------|
A:|-----------------5-5-5-5-5-5---------------|
E:|-----------------------------3-3-3-3-3-3-3-|

Verse:
G:|-----------------------------------|
D:|--------------------------3-3-2-2--|  3x, then:
A:|--3-3-0-3-3-3-0-3-3-3-0-3----------|
E:|-----------------------------------|

G:|-----------------------------------|
D:|-----------------------------------|
A:|--3-3-0-3-3-3-0-3-3-3-0-3-3-3-0-3--|
E:|-----------------------------------|

Chorus:
G:|-------------------------------------------------------------------|
D:|--5-5-5-5-5-5-5-5-5-5-5-5-5-5-5-5-3-3-3-3-3-3-3-3-2-2-2-2-0-0-0-0--|
A:|-------------------------------------------------------------------|
E:|-------------------------------------------------------------------|

G:|-------------------------------------------------------------------|
D:|--------------------------3-3-2-2----------------------------------|
A:|--3-3-0-3-3-3-0-3-3-3-0-3---------3-3-0-3-3-3-0-3-3-3-0-3-3-3-0-3--|
E:|-------------------------------------------------------------------|


Bridge (4x):
G:|-------------------------------------|
D:|--------------------------5-5-4-4----|
A:|--5-5-5-5-5-5-5-5-5-5-5-5------------|
E:|-------------------------------------|

Verse:
G:|-----------------------------------|
D:|--------------------------3-3-2-2--|  3x, then:
A:|--3-3-0-3-3-3-0-3-3-3-0-3----------|
E:|-----------------------------------|

G:|-----------------------------------|
D:|-----------------------------------|
A:|--3-3-0-3-3-3-0-3-3-3-0-3-3-3-0-3--|
E:|-----------------------------------|

Chorus: x4
G:|-------------------------------------------------------------------|
D:|--5-5-5-5-5-5-5-5-5-5-5-5-5-5-5-5-3-3-3-3-3-3-3-3-2-2-2-2-0-0-0-0--|
A:|-------------------------------------------------------------------|
E:|-------------------------------------------------------------------|

G:|-------------------------------------------------------------------|
D:|-------------------------3-3-2-2-----------------------------------|
A:|--3-3-0-3-3-3-0-3-3-3-0-3---------3-3-0-3-3-3-0-3-3-3-0-3-3-3-0-3--|
E:|-------------------------------------------------------------------|
            
Hard to play? Try these video lessons and learn fast. | Correct




comments powered by Disqus
↑ Back to top | Tablatures and chords are parodies/interpretations of the original songs. You may use it for private study, scholarship, research or language learning purposes only