» » »

Sentenced, Cross My Heart & Hope To Die Bass tabs (ver.1)

Artists:  A B C D E F G H I J K L M N O P Q R S T U V W X Y Z # 

Cross My Heart & Hope To Die Bass tabs (ver.1)

Sentenced Tabs
 Rating:
4/5 (4 votes)
Cross My Heart & Hope To Die lessons Tabs too difficult? Try these video lessons and learn fast
                “Cross My Heart and Hope To Die”

Intro
|---------------------------------------------------------------------|
|--3-5----------------------------------0-0-0-0-0-0-0-0-3-3-3-3-3-3-3-3
|-------0--3-3-3-3-3-3-3—3-3-3-3-3-3-3-3------------------------------|
|:--------------------------------------------------------------------|
Part 2
|---------------|		
|---------------|			
|-0-0-0-0-0-0-0-|		
|--------------;| x4	Then play the top bar with out the 3-5-0

For the first verse play intro part 2 x3
Chorus
-----------------|----------------|-----------------|-----------------|
-----------------|----------------|-3-3-3-3-3-3-3-3-|-0-0-0-0-0-0-0-0-|
0-0-0-0-0-0-0-0--|-0-0-0-0-0-0-0-0|-----------------|-----------------|
-----------------|----------------|-----------------|-----------------|
                                                      
----------------|-----------------|-----------------|-----------------|
----------------|-----------------|-----------------|-0-0-0-0-0-0-0-0/|
0-0-0-0-0-0-0-0-|-0-0-0-0-0-0-0-0-|-----------------|-----------------|
----------------|-----------------|-3-3-3-3-3-3-3-3-|-----------------|

For the 2nd Verse play Intro Part 2 x2
For 2nd Chorus play 1st chorus x2 and don’t slide
Post Chorus
|----------------------------------------------------------------|
|-0-0-0-0-0-0-0-0------------------------------------------------|
|-----------------0-0-0-0-0-0-0-0-0-0-0-0-0-0-0-0----------------|
|-------------------------------------------------3-3-3-3-3-3-3-3| x2

|-----------------------|
|-0-0-0-0-0-0-0-0-------|
|-----------------------|
|------------------0—0--| 

Break

Then (repeat the whole thing)
|-----------------------------------------------------------------|
|-----------------------------------------------------------------|
|-------------------0-0-0-0-0-0-0-0-x2-------------------3-x16----|
|-0-0-0-0-0-0-0-0 x2------------------0-0-0-0-0-0-0-0-x2----------|

|---------------------------------------------------------------------|
|---------------------------------------------------------------------|
|-------------------0-0-0-0-0-0-0-0-x2--------------------------------|
|-0-0-0-0-0-0-0-0 x2------------------0-0-0-0-0-0-0-0-x2---3-x8—2-x8-0|
            
Submit corrections

comments powered by Disqus
↑ Back to top | Sentenced Bass for Cross My Heart & Hope To Die. Lyrics for acoustic guitar and electric guitar. Tablatures and chords are parodies/interpretations of the original songs. You may use it for private study, scholarship, research or language learning purposes only