>
 >
You Are The One

You Are The One Guitar Tabs

Sentenced - You Are The One chords, tabs, tablatures, lyrics

Guitar lessons | Add/correct | Request | Top 50 tabs Artists:  A B C D E F G H I J K L M N O P Q R S T U V W X Y Z 0-9

You Are The One Guitar Tabs – Sentenced

CD, Sheet music, Poster

Do you like You Are The One? Share with your friends now
Bass TabsChordsTabsUkulele
intro:
d|----------10----------9------------10---------9----------|
A|-------12----------12-----------12---------12------------|
F|----11----------11-----------11---------11-------11h12p11|
C|--9-----------9------------9----------9------------------|
G|---------------------------------------------------------|
D|---------------------------------------------------------|

verse: (6th time A and G chords are played)
d|----------10-------9-------------------------------------12-14--|
A|-------12----12------12-----------------------------------------|
F|----11----------11------11-11h12p11-----11-12-----11------------|
C|--9-----------------------------------9-------9------9----------|
G|------------------------------------9-----------9------9--------|
D|----------------------------------------------------------------|

chorus:
d|--------------17-----------------------------------|
A|--17-15-14-15----15-14-15-17-15-14-15-19-15-14-15--|
F|---------------------------------------------------|
C|---------------------------------------------------|
G|---------------------------------------------------|
D|---------------------------------------------------|

d|---------------------------------------------------|
A|--15-14-12----12----12----12-12-15-12-17-15-14-15--|
F|-----------14----14----14--------------------------|
C|---------------------------------------------------|
G|---------------------------------------------------|
D|---------------------------------------------------|

d|---------------------------------------------------------------------------|
A|--17-15-14-15-19-15-14-15-15-15-14-15-19-15-14-15-15-15-14-15-17-15-14-15--|
F|---------------------------------------------------------------------------|
C|---------------------------------------------------------------------------|
G|---------------------------------------------------------------------------|
D|---------------------------------------------------------------------------|

solo 1:
d|---------------------------------------------------------------------------17-----|
A|--15h17p15-17-19-17-15-14-13-15-12--------------------------19~17-15-17-19----19--|
F|-----------------------------------14-14-16-14-13-13-14-11------------------------|
C|----------------------------------------------------------------------------------|
G|----------------------------------------------------------------------------------|
D|----------------------------------------------------------------------------------|

solo 2:
d|----------------------------------------------------|
A|--15-14-15-19--15-14-15-12--15-14-12-10-8-7--8-7-5--|
F|----------------------------------------------------|
C|----------------------------------------------------|
G|----------------------------------------------------|
D|----------------------------------------------------|

d|--------------17-17--------------------------------------------|
A|--15-14-15-19-------19-19-17-17-15-15-15-15-17-14-14-15-12-12--|
F|---------------------------------------------------------------|
C|---------------------------------------------------------------|
G|---------------------------------------------------------------|
D|---------------------------------------------------------------|

d|---------------------------------------|
A|--17-15-14-14-15-12-12-10-12-7-10b--7--|
F|---------------------------------------|
C|---------------------------------------|
G|---------------------------------------|
D|---------------------------------------|

solo 3
d|-------------------------------------------------------------17--|
A|--14-12-11-12-8-8-10-11-10-8-11-10b--14-12-11-12-14-15-17-19-----|
F|-----------------------------------------------------------------|
C|-----------------------------------------------------------------|
G|-----------------------------------------------------------------|
D|-----------------------------------------------------------------|


solo 4
d|--------------------------------------------------------------------|
A|--12-15-12-14-12-14h15p14-12-15-14b--15-19-15-17h19p17-15-17-15-12--|
F|--------------------------------------------------------------------|
C|--------------------------------------------------------------------|
G|--------------------------------------------------------------------|
D|--------------------------------------------------------------------|

riff 1
d|-2--2-2--2-2--2--2-2--2-2--0--0-0--0-0--0--0-0--0-0--|
A|-3--3-3--3-3--2--2-2--3-3--2--2-2--2-2--0--0-0--2-2--|
F|-4--4-4--4-4--4--4-4--4-4--2--2-2--2-2--2--2-2--2-2--|
C|-4--4-4--4-4--4--4-4--4-4--2--2-2--2-2--2--2-2--2-2--|
G|-2--2-2--2-2--2--2-2--2-2----------------------------|
D|-----------------------------------------------------|

d|--3--3-3--3-3--0--0-0--3-3--0--0-0--0-0--|
A|--0--0-0--0-0--0--0-0--0-0--2--2-2--2-2--|
F|--0--0-0--0-0--0--0-0--0-0--2--2-2--2-2--|
C|--0--0-0--0-0--0--0-0--0-0--2--2-2--2-2--|
G|--2--2-2--2-2--2--2-2--2-2---------------|
D|--3--3-3--3-3--3--3-3--3-3---------------|

riff 2
d|--------------------------------------------------------------------|
A|--------------------------------------------------------------------|
F|--------------------------------------------------------------------|
C|-5-5--5--4-4--4--5-5--5--5-5-5-5--5-5--5--4-4--4--5-5--5--4-4-4-4---|
G|-5-5--5--4-4--4--5-5--5--5-5-5-5--5-5--5--4-4--4--5-5--5--4-4-4-4---|
D|--------------------------------------------------------------------|

riff 3
d|--2-0-2-0-3-0-2--|
A|--3-2-3-2-0-2-3--|
F|--4-2-4-2-0-2-4--|
C|--4-2-4-2-0-2-4--|
G|--2---2---2---2--|
D|----------3------|

end
d|--------------3--3-3--3-3--|
A|--------------0--0-0--0-0--|
F|--------------0--0-0--0-0--|
C|-4--4-4--4-4--0--0-0--0-0--|
G|-4--4-4--4-4--2--2-2--2-2--|
D|-2--2-2--2-2--3--3-3--3-3--|

song structure:
		intro
		verse x6
		chorus + riff 1
		solo 1 + verse
		verse x3
		solo 2 + riff 2 x5
		chorus + riff 1
		solo 3 + riff 3
		chorus + riff 1 + solo 4
		end + verse





Comments


Popular Sentenced tabs & chords
Bleed Bass Tabs
Ever-frost Bass Tabs
Farewell Bass Tabs
Her Last 5 Minutes Bass Tabs
Home In Despair Bass Tabs
The Suicider Bass Tabs
Cross My Heart And Hope To Die 2 Tabs
Sun Won Shine Tabs
The Truth Tabs
You Are The One Ukulele


Song lyrics



↑ Back to top | Tablatures and chords are parodies/interpretations of the original songs. You may use it for private study, scholarship, research or language learning purposes only
© 2014 AZChords.com Contact us | Privacy policy | DMCA | Add/correct tabs | Request tabs | Top 50 tabs