» » »

Ever-frost Bass tabs (ver.1)

Artists:  A B C D E F G H I J K L M N O P Q R S T U V W X Y Z # 

Ever-frost Bass tabs (ver.1)

Sentenced
Rating:
0/5 (0 votes)

Hard to play? Try these video lessons and learn fast.
                “Ever-Frost” – Sentenced

(D, G, C, F,)


Intro 1
|-------------------------------------------------------------------|
|-------------------------------------------------------------------|
|-3-3-3-3-3-3-3-3-3-3-3-3-2-2-3-2-----------------------------------|
|---------------------------------5-5-5-5-5-5-5-5-5-5-5-5-5-5-5-5-5-|

Intro 2
|---------------------------------------------------------------------------------------------------------------------------------|
|---------------------------------------------------------------------------------------------------------------------------------|
|-----------------------------------------------------------------3-3-3-3-3-3-3-3-3-3-3-3-3-3-3-3-3-3-3-3-3-3-3-3-0-0-0-0-0-0-0-0-|
|-0-0-0-0-0-0-0-0-0-0-0-0-0-0-0-0-0-0-0-0-0-0-0-0-3-3-3-3-3-3-2-0-----------------------------------------------------------------|

|----------------------------------------------------------------------------------------------------------------------------------|
|----------------------------------------------------------------------------------------------------------------------------------|
|-------------------------------------------------------3-2-0------3-3-3-3-3-3-3-3-3-3-3-3-3-3-3-3-3-3-3-3-3-3-3-3-----------------|
|-0-0-0-0-0-0-0-0-0-0-0-0-0-0-0-0-2-2-2-2-2-2-2-2-3-3-3-------3-2--------------------------------------------------5-5-5-5-5-5-5-5-|


Intro 3 x4                 1st and 3rd   
|-----------------------|-----2-4----|---2nd---|--4th-----|
|-----------------------|-2-4--------|---------|----------|
|-2-2-2-2-2---2-2-2-2-2-|------------|-2-3-----|----------|
|-----------------------|------------|-----5-7-|-5-8-7-6--|

Verse
|--------------------------------------------------|
|--------------------------------------------------|
|--------------------------------------------------|
|-5-5--5-5-5-5--5-5-5-5--5-5-5-5--5-5-5-5--5-5-5-5-|

|--------------------------------------------------|
|--------------------------------------------------|
|--------------------------------------------------|
|-0-0-0-0-0-0-0-0-0-0-0-0-0-0-0-0-0-0-0-0-0-0-0-0--| repeat

|--------------------------------------------------------------------------------------------------------------------------|
|--------------------------------------------------------------------------------------------------------------------------|
|-3-3-3-3-3-3-3-3-3-3-3-3-3-3-3-3---------------------------------5-5-5-5-5-5-5-5-5-5-5-5-5-5-5-5------------------5-5-5---|
|---------------------------------5-5-5-5-5-5-5-5-5-5-5-5-5-5-5-5---------------------------------7-7-7-7--7-7-7-7-------0-|

Chorus is Intro 2

Intro 3 x1
Verse
Chorus x1
Intro 3 x2 (don't do 4th Part)
Chorus x4
            
Hard to play? Try these video lessons and learn fast. | Correct




comments powered by Disqus
↑ Back to top | Tablatures and chords are parodies/interpretations of the original songs. You may use it for private study, scholarship, research or language learning purposes only