>
 >
Cross My Heart And Hope To Die

Cross My Heart And Hope To Die Guitar Tabs

Sentenced - Cross My Heart And Hope To Die chords, tabs, tablatures, lyrics

Guitar lessons | Add/correct | Request | Top 50 tabs Artists:  A B C D E F G H I J K L M N O P Q R S T U V W X Y Z 0-9

Cross My Heart And Hope To Die Guitar Tabs – Sentenced

CD, Sheet music, Poster

Do you like Cross My Heart And Hope To Die? Share with your friends now
Bass TabsTabsTabs v2
D||-----------6-----------5--|--------------------------|
A||-----3-----------3--------|-----3-----4-----6-----3--|
F||--0-----0-----0-----0-----|--0-----0-----0-----0-----|
C||--------------------------|--------------------------|
G||--------------------------|--------------------------|
D||--------------------------|--------------------------|



-----------6-----------5--|--------------------------|
-----3-----------3--------|-----3-----4-----6-----3--|
--0-----0-----0-----0-----|--0-----0-----0-----0-----|
--------------------------|--------------------------|
--------------------------|--------------------------|
--------------------------|--------------------------|



-----------6-----------5--|--------------------------|
-----4-----------4--------|-----4-----6-----8-----4--|
--0-----0-----0-----0-----|--0-----0-----0-----0-----|
--------------------------|--------------------------|
--------------------------|--------------------------|
--------------------------|--------------------------|



-----------6-----------8--|-----------6-----5--------|
-----4-----------4--------|-----4-----------------6--|
--0-----0-----0-----0-----|--0-----0-----0-----0-----|
--------------------------|--------------------------|
--------------------------|--------------------------|
--------------------------|--------------------------|



-----------6-----------5--|--------------------------|
-----3-----------3--------|-----3-----4-----6-----3--|
--0-----0-----0-----0-----|--0-----0-----0-----0-----|
--------------------------|--------------------------|
--------------------------|--------------------------|
--------------------------|--------------------------|



-----------6-----------5--|--------------------------|
-----3-----------3--------|-----3-----4-----6-----4--|
--0-----0-----0-----0-----|--0-----0-----0-----0-----|
--------------------------|--------------------------|
--------------------------|--------------------------|
--------------------------|--------------------------|



-----------6-----------5--|--------------------------|
-----4-----------4--------|-----4-----6-----8-----4--|
--0-----0-----0-----0-----|--0-----0-----0-----0-----|
--------------------------|--------------------------|
--------------------------|--------------------------|
--------------------------|--------------------------|



-----------6-----------8--|-----------6-----5--------|
-----4-----------4--------|-----4-----------------6--|
--0-----0-----0-----0-----|--0-----0-----0-----0-----|
--------------------------|--------------------------|
--------------------------|--------------------------|
--------------------------|--------------------------|



-----------6-----------5--|------------------|-----------6-----------5--|
-----3-----------3--------|------------------|-----3-----------3--------|
--0-----0-----0-----0-----|------------------|--0-----0-----0-----0-----|
--------------------------|------------------|--------------------------|
--------------------------|------------------|--------------------------|
--------------------------|------------------|--------------------------|



------------------|-----------6-----------5--|------------------|
------------------|-----4-----------4--------|------------------|
------------------|--0-----0-----0-----0-----|------------------|
------------------|--------------------------|------------------|
------------------|--------------------------|------------------|
------------------|--------------------------|------------------|



-----------6-----------8--|-----------6-----5--------|
-----4-----------4--------|-----4-----------------6--|
--0-----0-----0-----0-----|--0-----0-----0-----0-----|
--------------------------|--------------------------|
--------------------------|--------------------------|
--------------------------|--------------------------|



-----------6-----------5--|------------------|-----------6-----------5--|
-----3-----------3--------|------------------|-----3-----------3--------|
--0-----0-----0-----0-----|------------------|--0-----0-----0-----0-----|
--------------------------|------------------|--------------------------|
--------------------------|------------------|--------------------------|
--------------------------|------------------|--------------------------|



------------------|-----------6-----------5--|------------------|
------------------|-----4-----------4--------|------------------|
------------------|--0-----0-----0-----0-----|------------------|
------------------|--------------------------|------------------|
------------------|--------------------------|------------------|
------------------|--------------------------|------------------|



-----------6-----------8--|-----------6-----5--------|
-----4-----------4--------|-----4-----------------6--|
--0-----0-----0-----0-----|--0-----0-----0-----0-----|
--------------------------|--------------------------|
--------------------------|--------------------------|
--------------------------|--------------------------|



-----6-----6-----5-----6--|-----6-----6-----5-----6--|
--------------------------|--------------------------|
--0-----0-----0-----0-----|--0-----0-----0-----0-----|
--------------------------|--------------------------|
--------------------------|--------------------------|
--------------------------|--------------------------|



-----6-----6-----------5--|--------------------------|
-----------------4--------|-----4-----4-----4-----6--|
--0-----0-----0-----0-----|--0-----0-----0-----0-----|
--------------------------|--------------------------|
--------------------------|--------------------------|
--------------------------|--------------------------|



-----6-----6-----5-----6--|-----6-----10-----5-----6--|
--------------------------|---------------------------|
--0-----0-----0-----0-----|--0-----0------0-----0-----|
--------------------------|---------------------------|
--------------------------|---------------------------|
--------------------------|---------------------------|



-----6-----6-----------5--|-----------8-----5-----6--|----------6-----------5--|
-----------------4--------|-----4--------------------|----3-----------3--------|
--0-----0-----0-----0-----|--0-----0-----0-----0-----|-------0-----0-----0-----|
--------------------------|--------------------------|-------------------------|
--------------------------|--------------------------|-------------------------|
--------------------------|--------------------------|-------------------------|



------------------|-----------6-----------5--|------------------|
------------------|-----3-----------3--------|------------------|
------------------|--0-----0-----0-----0-----|------------------|
------------------|--------------------------|------------------|
------------------|--------------------------|------------------|
------------------|--------------------------|------------------|



-----------6-----------5--|------------------|-----------6-----------8--|
-----4-----------4--------|------------------|-----4-----------4--------|
--0-----0-----0-----0-----|------------------|--0-----0-----0-----0-----|
--------------------------|------------------|--------------------------|
--------------------------|------------------|--------------------------|
--------------------------|------------------|--------------------------|



-----------6-----5--------|-----------6-----------5--|------------------|
-----4-----------------6--|-----3-----------3--------|------------------|
--0-----0-----0-----0-----|--0-----0-----0-----0-----|------------------|
--------------------------|--------------------------|------------------|
--------------------------|--------------------------|------------------|
--------------------------|--------------------------|------------------|



-----------6-----------5--|------------------|-----------6-----------5--|
-----3-----------3--------|------------------|-----4-----------4--------|
--0-----0-----0-----0-----|------------------|--0-----0-----0-----0-----|
--------------------------|------------------|--------------------------|
--------------------------|------------------|--------------------------|
--------------------------|------------------|--------------------------|



------------------|-----------6-----------8--|-----------6-----5--------|
------------------|-----4-----------4--------|-----4-----------------6--|
------------------|--0-----0-----0-----0-----|--0-----0-----0-----0-----|
------------------|--------------------------|--------------------------|
------------------|--------------------------|--------------------------|
------------------|--------------------------|--------------------------|



|------6-----6-----5-----6--|-----6-----6-----5-----6--|
|---------------------------|--------------------------|
|*--0-----0-----0-----0-----|--0-----0-----0-----0-----|
|*--------------------------|--------------------------|
|---------------------------|--------------------------|
|---------------------------|--------------------------|



-----6-----6-----------5--|--------------------------|
-----------------4--------|-----4-----4-----4-----6--|
--0-----0-----0-----0-----|--0-----0-----0-----0-----|
--------------------------|--------------------------|
--------------------------|--------------------------|
--------------------------|--------------------------|



-----6-----6-----5-----6--|-----6-----10-----5-----6--|
--------------------------|---------------------------|
--0-----0-----0-----0-----|--0-----0------0-----0-----|
--------------------------|---------------------------|
--------------------------|---------------------------|
--------------------------|---------------------------|



-----6-----6-----------5--|-----------8-----5-----6---||
-----------------4--------|-----4---------------------||
--0-----0-----0-----0-----|--0-----0-----0-----0-----*||
--------------------------|--------------------------*||
--------------------------|---------------------------||
--------------------------|---------------------------||



-----------8-----5-----6--|-----------------------10--|
-----4--------------------|--8--11----8--10----8------|
--0-----0-----0-----0-----|---------------------------|
--------------------------|---------------------------|
--------------------------|---------------------------|
--------------------------|---------------------------|



----------------------8--|-------------------------|--13-------------------8--|
----8--10----8--11-------|--8----11----8--10----8--|--------8--10----11-------|
-------------------------|-------------------------|--------------------------|
-------------------------|-------------------------|--------------------------|
-------------------------|-------------------------|--------------------------|
-------------------------|-------------------------|--------------------------|



-------------------------|--10-------------------8--|-------------------------|
--8----11----8--10----8--|--------8--10----11-------|--8----11----8--10----8--|
-------------------------|--------------------------|-------------------------|
-------------------------|--------------------------|-------------------------|
-------------------------|--------------------------|-------------------------|
-------------------------|--------------------------|-------------------------|



--13-------------------8--|--10h8h6h8-10------------|------------------|
--------8--10----11-------|-------------------------|------------------|
--------------------------|-------------------------|------------------|
--------------------------|-------------------------|------------------|
--------------------------|-------------------------|------------------|
--------------------------|-------------------------|------------------|



--0-----------0-----------|--0-----------0-----------|
-----3-----3-----3-----3--|-----3-----3-----3-----3--|
--------2-----------2-----|--------2-----------2-----|
--------------------------|--------------------------|
--------------------------|--------------------------|
--------------------------|--------------------------|



--0-----------0-----------|--0-----------0-----------|
-----3-----3-----3-----3--|-----3-----3-----3-----3--|
--------3-----------3-----|--------3-----------3-----|
--------------------------|--------------------------|
--------------------------|--------------------------|
--------------------------|--------------------------|



--0-----------0-----------|--0-----------0-----------|
-----3-----3-----3-----3--|-----3-----3-----3-----3--|
--------2-----------2-----|--------2-----------2-----|
--------------------------|--------------------------|
--------------------------|--------------------------|
--------------------------|--------------------------|



--0-----------0-----------|--0-----------0-----------|
-----3-----3-----3-----3--|-----3-----3-----3-----3--|
--------3-----------3-----|--------3-----------3-----|
--------------------------|--------------------------|
--------------------------|--------------------------|
--------------------------|--------------------------|



--0-----------0-----------|--0-----------0-----------|
-----3-----3-----3-----3--|-----3-----3-----3-----3--|
--------2-----------2-----|--------2-----------2-----|
--------------------------|--------------------------|
--------------------------|--------------------------|
--------------------------|--------------------------|



--0-----------0-----------|--0-----------0-----------|
-----3-----3-----3-----3--|-----3-----3-----3-----3--|
--------3-----------3-----|--------3-----------3-----|
--------------------------|--------------------------|
--------------------------|--------------------------|
--------------------------|--------------------------|



--0-----------0-----------|--0-----------0-----------|
-----3-----3-----3-----3--|-----3-----3-----3-----3--|
--------2-----------2-----|--------2-----------2-----|
--------------------------|--------------------------|
--------------------------|--------------------------|
--------------------------|--------------------------|



--0-----------0-----------|--0-----------0-----------|-------3-----5-----3-----|
-----3-----3-----3-----3--|-----1-----1-----1-----1--|--3-------3-----3-----3--|
--------5-----------5-----|--------0-----------0-----|-------------------------|
--------------------------|--------------------------|-------------------------|
--------------------------|--------------------------|-------------------------|
--------------------------|--------------------------|-------------------------|



-------3-----5-----3-----|-------------------------|-------------------------|
----3-----3-----3-----6--|-------5-----6-----5-----|-------5-----6--5-----5--|
-------------------------|----3-----3-----3-----3--|----3-----3--------5-----|
-------------------------|-------------------------|-------------------------|
-------------------------|-------------------------|-------------------------|
-------------------------|-------------------------|-------------------------|



--------3-----5-----3-----|-------3-----5r---3--5--|--------------------------|
--3--3-----3-----3-----3--|----3-----3-------------|--------5-----6-----5-----|
--------------------------|------------------------|--3--3-----3-----3-----3--|
--------------------------|------------------------|--------------------------|
--------------------------|------------------------|--------------------------|
--------------------------|------------------------|--------------------------|



-------------3-----------|-------3-----5-----3-----|-------3-----5-----3-----|
-------5--------6--5-----|--3-------3-----3-----3--|----3-----3-----3-----6--|
----3-----3-----------5--|-------------------------|-------------------------|
-------------------------|-------------------------|-------------------------|
-------------------------|-------------------------|-------------------------|
-------------------------|-------------------------|-------------------------|



-------------------------|-------------------------|--------3-----5-----3-----|
-------5-----6-----5-----|-------5-----6--5-----5--|--3--3-----3-----3-----3--|
----3-----3-----3-----3--|----3-----3--------5-----|--------------------------|
-------------------------|-------------------------|--------------------------|
-------------------------|-------------------------|--------------------------|
-------------------------|-------------------------|--------------------------|



-------3-----5r---3--5--|--5----3--5--5r---3--5--|--5----3--5--5r---3--5--|
----3-----3-------------|------------------------|------------------------|
------------------------|------------------------|------------------------|
------------------------|------------------------|------------------------|
------------------------|------------------------|------------------------|
------------------------|------------------------|------------------------|



--5------3h---6--6----|----5----3--3-----------|--------------------|
----------------------|---------------5--5--6--|--5r----------------|
----------------------|------------------------|-----------------3--|
----------------------|------------------------|--------------------|
----------------------|------------------------|--------------------|
----------------------|------------------------|--------------------|



----------------8h10-|--10r-----------------|----------------------------|
---------------------|------------10--------|----10---10---10------------|
---------------------|----------------------|--------------------12-10---|
---------------------|----------------------|----------------------------|
---------------------|----------------------|----------------------------|
---------------------|----------------------|----------------------------|



-----------------------------|-------------------|
-----------------------------|-------------------|
--9---10---12--10---9---9h10-|--9----------------|
-----------------------------|-------------------|
-----------------------------|-------------------|
-----------------------------|-------------------|



--------------------------------|----------------------------------|
--15----15--17--15--15--18--15--|--15--20--15--15--18--15--17--15--|
--------------------------------|----------------------------------|
--------------------------------|----------------------------------|
--------------------------------|----------------------------------|
--------------------------------|----------------------------------|



--------------------------------------------------|
--17--18--17--15----------------------------------|
------------------17--15--14--15--14--------------|
--------------------------------------17--15--14--|
--------------------------------------------------|
--------------------------------------------------|



------------------------------------|--17------15------17r---|
--------------------------15--------|------------------------|
------------------14--15------------|------------------------|
------14--15--17--------------------|------------------------|
--17--------------------------------|------------------------|
------------------------------------|------------------------|



----------------------|----------15------------|------------------------|
----------18----17----|--18--------------17----|--17b-----17------13----|
----------------------|------------------------|------------------------|
----------------------|------------------------|------------------------|
----------------------|------------------------|------------------------|
----------------------|------------------------|------------------------|



--------------------|------------------|------------------|------------------|
--15----------------|------------------|------------------|------------------|
--------------------|------------------|------------------|------------------|
--------------------|------------------|------------------|------------------|
--------------------|------------------|------------------|------------------|
--------------------|------------------|------------------|------------------|





Comments


Popular Sentenced tabs & chords
Brief Is The Light Bass Tabs
Nepenthe Bass Tabs
Sun Won't Shine Bass Tabs
The War Aint Over Bass Tabs
Despair-ridden Hearts 1 Chords
Aika Multaa Muistot (Everything Is Nothing) Tabs
Killing Me Killing You Tabs
Let Go Tabs
No One There Tabs
Vengeance Is Mine Ukulele


Song lyrics



↑ Back to top | Tablatures and chords are parodies/interpretations of the original songs. You may use it for private study, scholarship, research or language learning purposes only
© 2014 AZChords.com Contact us | Privacy policy | DMCA | Add/correct tabs | Request tabs | Top 50 tabs