>
 >
Cross My Heart And Hope To Die 2

Cross My Heart And Hope To Die 2 Guitar Tabs

Sentenced - Cross My Heart And Hope To Die 2 chords, tabs, tablatures, lyrics

Guitar lessons | Add/correct | Request | Top 50 tabs Artists:  A B C D E F G H I J K L M N O P Q R S T U V W X Y Z 0-9

Cross My Heart And Hope To Die 2 Guitar Tabs – Sentenced

CD, Sheet music, Poster

Do you like Cross My Heart And Hope To Die 2? Share with your friends now
Bass TabsTabsTabs v2

D tuning: D A F C G D

|-------------------------------------------------------|
|-------------------------------------------------------|
|----------12----14----12----------12----14----12-------|
|--12--12-----12----12----12----12----12----12----15----|
|-------------------------------------------------------|
|-------------------------------------------------------|

|----------------------------------------------|
|----------------------------------------------|
|--------9---10---9--------9---10--9------9----|
|--8--8----8----8---8----8---8--------10-------|
|----------------------------------------------|
|----------------------------------------------|

|------------------------------------------------------------|
|------------------------------------------------------------|
|----------12----14----12----------12--14--14b15r14--12--14--|
|--12--12-----12----12----12----12---------------------------|
|------------------------------------------------------------|
|------------------------------------------------------------|

|----------------------------------------------|
|----------------------------------------------|
|--------9---10---9--------9---12--10--9-------|
|--8--8----8----8---8----8---8------------10---|
|----------------------------------------------|
|----------------------------------------------|

|-------------------------------------------------------|
|-------------------------------------------------------|
|----------12----14----12----------12----14----12-------|
|--12--12-----12----12----12----12----12----12----15----|
|-------------------------------------------------------|
|-------------------------------------------------------|

|----------------------------------------------|
|----------------------------------------------|
|--------9---10---9--------9---10--9------9----|
|--8--8----8----8---8----8---8--------10-------|
|----------------------------------------------|
|----------------------------------------------|

|------------------------------------------------------------|
|------------------------------------------------------------|
|----------12----14----12----------12--14--14b15r14--12--14--|
|--12--12-----12----12----12----12---------------------------|
|------------------------------------------------------------|
|------------------------------------------------------------|

|-------------------------------------------------------------|
|-------------------------------------------------------------|
|-----12--14--14b15r14--12--14-----12--14--14b15r14--12h14----|
|--12---------------------------12----------------------------|
|-------------------------------------------------------------|
|-------------------------------------------------------------|

|----------------------------------------------------------------------|
|----------------------------------------------------------------------|
|--14--(14)\12--12/15--15~~~---14--14\10--10p9--9h10--9b10r9~----------|
|--------------------------------------------------------------12--8~--|
|----------------------------------------------------------------------|
|----------------------------------------------------------------------|

|-------------------------------------------------------------------|
|--13--15b17r15-----------------------------------------------------|
|----------------14~---14-14-14--12--10--9--10--10h12p10--9h10--9~--|
|-------------------------------------------------------------------|
|-------------------------------------------------------------------|
|-------------------------------------------------------------------|

|--------------------------------------------------------------|
|--15--15--17--15--15--18--15--15--20--15--15--18--15--17--15--|
|--------------------------------------------------------------|
|--------------------------------------------------------------|
|--------------------------------------------------------------|
|--------------------------------------------------------------|

|------------------------------------------------------------------------|
|--17h18p17---------------------------------------------------------15~--|
|------------17--15--14---------------------------------14--15--17-------|
|------------------------14h15h17p15p14------14--15--17------------------|
|----------------------------------------17------------------------------|
|------------------------------------------------------------------------|

|--17--15--17b18--17-------------15----------------------------|
|---------------------18--17--18----17--17b18--17--13--13/15~--|
|--------------------------------------------------------------|
|--------------------------------------------------------------|
|--------------------------------------------------------------|
|--------------------------------------------------------------|

I play it in standard so I decided to include it:
E standard tuning: E B G D A E

|-------------------------------------------------------|
|-------------------------------------------------------|
|----------10----12----10----------10----12----10-------|
|--10--10-----10----10----10----10----10----10----13----|
|-------------------------------------------------------|
|-------------------------------------------------------|

|---------------------------------------------|
|---------------------------------------------|
|--------7---8----7--------7---8--7-----7-----|
|--6--6----6----6---6----6---6-------8--------|
|---------------------------------------------|
|---------------------------------------------|

|------------------------------------------------------------|
|------------------------------------------------------------|
|----------10----12----10----------10--12--12b13r12--10--12--|
|--10--10-----10----10----10----10---------------------------|
|------------------------------------------------------------|
|------------------------------------------------------------|

|---------------------------------------------|
|---------------------------------------------|
|--------7---8----7--------7---10--8--7-------|
|--6--6----6----6---6----6---6-----------8----|
|---------------------------------------------|
|---------------------------------------------|

|-------------------------------------------------------|
|-------------------------------------------------------|
|----------10----12----10----------10----12----10-------|
|--10--10-----10----10----10----10----10----10----13----|
|-------------------------------------------------------|
|-------------------------------------------------------|

|---------------------------------------------|
|---------------------------------------------|
|--------7---8----7--------7---8--7-----7-----|
|--6--6----6----6---6----6---6-------8--------|
|---------------------------------------------|
|---------------------------------------------|

|------------------------------------------------------------|
|------------------------------------------------------------|
|----------10----12----10----------10--12--12b13r12--10--12--|
|--10--10-----10----10----10----10---------------------------|
|------------------------------------------------------------|
|------------------------------------------------------------|

|-------------------------------------------------------------|
|-------------------------------------------------------------|
|-----10--12--12b13r12--10--12-----10--12--12b13r12--10h12----|
|--10---------------------------10----------------------------|
|-------------------------------------------------------------|
|-------------------------------------------------------------|

|------------------------------------------------------------------|
|------------------------------------------------------------------|
|--12--(12)\10--10/13--13~~~---12--12\8--8p7--7h8--7b8r7~----------|
|----------------------------------------------------------10--6~--|
|------------------------------------------------------------------|
|------------------------------------------------------------------|

|---------------------------------------------------------------|
|--11--13b15r13-------------------------------------------------|
|----------------12~---12-12-12--10--8--7--8--8h10p8--7h8--7~---|
|---------------------------------------------------------------|
|---------------------------------------------------------------|
|---------------------------------------------------------------|

|--------------------------------------------------------------|
|--13--13--15--13--13--16--13--13--18--13--13--16--13--15--13--|
|--------------------------------------------------------------|
|--------------------------------------------------------------|
|--------------------------------------------------------------|
|--------------------------------------------------------------|

|------------------------------------------------------------------------|
|--15h16p15---------------------------------------------------------13~--|
|------------15--13--12---------------------------------12--13--15-------|
|------------------------12h13h15p13p12------12--13--15------------------|
|----------------------------------------15------------------------------|
|------------------------------------------------------------------------|

|--15--13--15b16--15-------------13----------------------------|
|---------------------16--15--16----15--15b16--15--11--11/13~--|
|--------------------------------------------------------------|
|--------------------------------------------------------------|
|--------------------------------------------------------------|
|--------------------------------------------------------------|





Comments


Popular Sentenced tabs & chords
Drown Together Bass Tabs
May Today Become The Day Bass Tabs
Sun Won't Shine Bass Tabs
The Suicider Bass Tabs
Excuse Me While I Kill Myself Chords
Blood & Tears Tabs
Let Go (Solo) Tabs
Lower The Flags Tabs
Luxury Of A Grave Tabs
The Truth Tabs


Song lyrics



↑ Back to top | Tablatures and chords are parodies/interpretations of the original songs. You may use it for private study, scholarship, research or language learning purposes only
© 2014 AZChords.com Contact us | Privacy policy | DMCA | Add/correct tabs | Request tabs | Top 50 tabs