» » »

Bleed Bass tabs (ver.2)

Artists:  A B C D E F G H I J K L M N O P Q R S T U V W X Y Z # 

Bleed Bass tabs (ver.2)

Sentenced
Rating:
0/5 (0 votes)

Hard to play? Try these video lessons and learn fast.
                This song is actually called "Bleed in My Arms" 


Tune D, G, C, F

Intro
|---------------------------------------------------------------|
|---------------------------------------------------------------|
|------------------------------0-3-3-3-3--3-3-0--0-0-0-0--0-0-0-|
|-0-0-0-0--0-0-0---0-0-0-0-0-0----------------------------------|

Verse
|---------------------------------------------------------------|
|---------------------------------------------------------------|
|---------------------------------3-3-3-3-3-3-3-3-0-0-0-0-0-0-0-|
|-0-0-0-0-0-0-0-0-0-0-0-0-0-0-0-0-------------------------------|

Pre-Chorus
|---------------------------|
|-0-------------------------|
|---0-----------------------|
|---------0-0-0-0-0-0-0-0-0-|


Chorus
|---------------------------------------------------------------|
|---------------------------------------------------------------|
|-----------------3-3-3-3-3-3-3-3-0-0-0-0-0-0-0-----------------|
|-0-0-0-0-0-0-0-0-------------------------------3-3-3-3-2-2-2-2-|

Verse
Pre-Chorus
Chorus

Break
|------------------|
|------------------|
|-----3---0---5--7-|
|-0----------------|

Solo one play break as eigth notes

Break 2 
|------------------------|
|------------------------|
|-------------5--5--5--5-|
|-0--0--0--0-------------|

solo 2 Break 2 as eight notes

Chorus

Intro
            
Hard to play? Try these video lessons and learn fast. | Correct




comments powered by Disqus
↑ Back to top | Tablatures and chords are parodies/interpretations of the original songs. You may use it for private study, scholarship, research or language learning purposes only