>
 >
Bleed

Bleed Guitar Tabs

Sentenced - Bleed chords, tabs, tablatures, lyrics

Guitar lessons | Add/correct | Request | Top 50 tabs Artists:  A B C D E F G H I J K L M N O P Q R S T U V W X Y Z 0-9

Bleed Guitar Tabs – Sentenced

CD, Sheet music, Poster

Do you like Bleed? Share with your friends now
Bass TabsBass Tabs v2Tabs
                  Bleed
              ------------
              by SENTENCED
 tabs by Sami Kyrönlahti


tune down to D

 intro riff
d|-----------------|-----------------|-----------------|
A|-----------------|-----------------|-----------------|
F|-2-2-2-2-2-2-2-2-|-2-2-2-2-2-2-2---|-0-0-0-0-0-0-0-7-|
C|-2-2-2-2-0-2-3-2-|-2-2-2-2-0-2-3-0-|-2-2-2-2-0-2-3-7-|
G|-0-0-0-0-0-0-0-0-|-0-0-0-0-0-0-0-0-|-3-3-3-3-3-3-3-5-|
D|-----------------|-----------------|-----------------|
  
    end intro riff    fill 1.
  ----------------|   ----------------|
  |1.                 |2.
|------------------|----------------------|
|-----------------*|----pm----pm----pm----|
|-7-7-7-7-7-7-7-7--|----------------------|
|-7-7-7-7-7-7-7-7--|-3--0--2--0--5--0--2--|
|-5-5-5-5-5-5-5-5-*|----------------------|
|------------------|----------------------|

 w/intro riff
|-------------------|---------------|------------------|
|-------------------|---------------|----------------3-|
|-------------------|---------------|----------------2-|
|-2--2-2--0-2-3--2--|--2-2-0-2-3-0--|-2--2-2--0-2-3--0-|
|-------------------|---------------|------------------|
|-------------------|---------------|------------------|

|-----------------|------------------|--------------|
|-3-3-3-3-3-3-3-3-|------------------|--------------|
|-2-2-2-2-2-2-2-2-|------------------|--------------|
|-0-0-0-0-0-0-0-0-|-2--2-2--0-2-3--2-|--2-2-0-2-3-0-|
|-----------------|------------------|--------------|
|-----------------|------------------|--------------|

|------------------|----------------|----------------------|
|------------------|----------------|----------------------|
|------------------|----pm----pm----|----pm----pm----pm----|
|-2--2-2--0-2-3-0--|-3--0--2--0--0--|-3--0--2--0--0--0--2--|
|------------------|----------------|----------------------|
|------------------|----------------|----------------------|

                                                       |---------------|
riff 2.                                                |1. / 3.
|------------------|-----------------|-----------------|------------------|
|*-----------------|-----------------|-----------------|-----------------*|
|------------------|-----------------|-----------------|------------------|
|--2-2-2-2-2-2-2-2-|-2-2-2-2-2-2-2-2-|-2-2-2-2-2-2-2-2-|------------------|
|*-0-0-0-0-0-0-0-0-|-0-0-0-0-0-0-0-0-|-3-3-3-3-3-3-3-3-|-5-5-5-3-5-6-5-3-*|
|------------------|-----------------|-----------------|------------------|

 |----------------|
 |2.                   riff 3.
|------------------| |-----------------------|------------------|
|------------------| |*----------------------|------------------|
|----7-----7---7-7-| |-----------------------|------------------|
|----5-5-5-5-5-5-5-| |----------2----------4-|---------5--5-3-2-|
|-2----------------| |*-0-0-0-0-0--2-2-2-2-2-|-3-3-3-3-3--------|
|------------------| |-----------------------|------------------|

 |---------------------------|  |------------------|
 |1.                            |2.
|-----------------------------|---------------------|
|----------------------------*|---------------3----*|
|-----------------------------|---------------2-----|
|-3--3--3-2-0-3--3-3--3-2-0-3-|-3--3--3-5-3-2-0-----|
|----------------------------*|--------------------*|
|-----------------------------|---------------------|

chorus
|-8-8-8-8-8-8-8-8-|-7-7-7-7-7-7-7-7-|-5-5-5-5-5-5-5-5-|-----------------|
|-8-8-8-8-8-8-8-8-|-5-5-5-5-5-5-5-5-|-5-5-5-5-5-5-5-5-|-6-6-6-6-6-6-6-6-|
|-----------------|-----------------|-----------------|-5-5-5-5-5-5-5-5-|
|-----------------|-----------------|-----------------|-----------------|
|-----------------|-----------------|-----------------|-----------------|
|-----------------|-----------------|-----------------|-----------------|

repeat riff 2
repeat riff 3
repeat chorus
repeat intro  and fill 1

solo  w/intro riff                        bend and release
|-----------------|--------------------|-15---15-----------|
|-----------------|----------13----13--|-15^------15'--13--|
|-14p12----12-14--|-14p12-------14-----|-------------------|
|-------14--------|-------14-----------|-------------------|
|-----------------|--------------------|-------------------|
|-----------------|--------------------|-------------------|

|------------------------|-------|----------------------------|
|-----17--13h17p13-------|-------|----------------------------|
|-14---------------14----|-14----|-14--17--17--16--14------14-|
|---------------------17-|-------|-14--14--14--14--14--17-----|
|------------------------|-------|----------------------------|
|------------------------|-------|----------------------------|

|-----------------|----------------------|----------------|
|-----------------|-10--8--10--8--10--12^|-12--10--8--10--|
|-----------------|----------------------|----------------|
|-10--12--10------|----------------------|----------------|
|-------------12--|----------------------|----------------|
|-----------------|----------------------|----------------|

|----17-----------------------|
|-17----15-17-----------------|
|-------------17-16-----------|
|-------------------14----14~~|
|----------------------17-----|
|-----------------------------|

rhy fig 1.
|------------------|----------------|-----------------|
|*-----------------|-------------1~-|-----------------|
|------2---0-2---2-|-----2---0-2----|-2~--------------|
|------------------|----------------|-----5---5-----4-|
|*-0-0---0-----0---|-0-0---0--------|-3-3---3---3-3---|
|------------------|----------------|-----------------|

|---------------------|-----------------|--------------------|
|---------------------|-----------------|-------1-3-3^-1-3-1-|
|---------------------|-----2---0-2---2-|-----2--------------|
|-0-0-4-0-4-5-4h5p4-0-|-----------------|--------------------|
|---------------------|-0-0---0-----0---|-0-0----------------|
|---------------------|-----------------|--------------------|

|-----------------|----------------------|
|-----------------|---------------------*|
|-----------------|----------------------|
|-----5---5-----4-|-0-0-4-0-4-5-4h5p5-0--|
|-3-3---3---3-3---|---------------------*|
|-----------------|----------------------|

rhy fig 2.  w/rhy fig 1.
|------------------|-----------------|
|*-----------------|-----------------|
|----------------2-|---0-------------|
|------2---0-2-----|-------0---2---0-|
|*-0-0---0-----0---|-0---0---0---0---|
|------------------|-----------------|

|-----------------|-----------------|
|-----------------|----------------*|
|---------------2-|---0-------------|
|-----2---0-2-----|-0---0-0-0-2--0--|
|-3-3---3-----3---|----------------*|
|-----------------|-----------------|

w/rhy fig 1 & 2   |--|--|--|-D5-D5-|

chorus (third time w/fill 2)

  fill 2.
|---------------|--------------------|-------------|
|-5--5-5--4-5-7-|-5--5-5-4-5-4-------|-------------|
|---------------|--------------7-5-7-|-7-7-5-7-5---|
|---------------|--------------------|-----------7-|
|---------------|--------------------|-------------|
|---------------|--------------------|-------------|

|-----------------|-------------|-------------|
|-----------------|-------------|-------------|
|-----------------|--7^--7^---5-|-4-5-7-5-4-5-|
|-3--3-2--3-3-2-3-|-------------|-------------|
|-----------------|-------------|-------------|
|-----------------|-------------|-------------|

|-------------|-----------------|----
|-------------|-----------------|----
|-5-5-4-5-----|-4-5-7-5-4-5-4---|----
|---------7-5-|---------------5-|-7--
|-------------|-----------------|----
|-------------|-----------------|----

|-----------------|-----------------|-------------------
|-----------------|-----------------|-------------------
|-----------------|-----------------|-2-2-2-2-0-2-3-2---
|-2-2-2-2-0-2-3-2-|-2-2-2-2-0-2-3-2-|-2-2-2-2-0-2-3-2---
|-0-0-0-0-0-0-0-0-|-0-0-0-0-0-0-0-0-|-0-0-0-0-0-0-0-0---
|-----------------|-----------------|-------------------





Comments


Popular Sentenced tabs & chords
Ever-frost Bass Tabs
Excuse Me While I Kill Myself Bass Tabs
Farewell Bass Tabs
No One There 2 Bass Tabs
Warrior Of Life Bass Tabs
Excuse Me While I Kill Myself Chords
Mourn Tabs
Noose Tabs
Shadegrown Tabs
Despair-ridden Hearts Ukulele


Song lyrics



↑ Back to top | Tablatures and chords are parodies/interpretations of the original songs. You may use it for private study, scholarship, research or language learning purposes only
© 2014 AZChords.com Contact us | Privacy policy | DMCA | Add/correct tabs | Request tabs | Top 50 tabs