» » »

Sentenced, Bleed Bass tabs (ver.1)

Artists:  A B C D E F G H I J K L M N O P Q R S T U V W X Y Z # 

Bleed Bass tabs (ver.1)

Sentenced Tabs
 Rating:
4/5 (4 votes)
Bleed lessons Tabs too difficult? Try these video lessons and learn fast
1
                “Bleed” - Sentenced

Intro
F||--------------------------|--------------------------|
C||--------------------------|--------------------------|
G||--0--0--0--0--0--0--0--0--|--0--0--0--0--0--0--0--0--|
D||--------------------------|--------------------------|
                                                      
--------------------------|--------------------------|
--------------------------|--------------------------|
--3--3--3--3--3--3--3--3--|--5--5--5--5--5--5--5--5--|
--------------------------|--------------------------|
                                                      
--------------------------|--------------------------|
--------------------------|--------------------------|
--0--0--0--0--0--0--0--0--|--0--0--0--0--0--0--0--0--|
--------------------------|--------------------------|
                                          
--------------------------|----|--------------------------|
--------------------------|----|--------------------------|
--3--3--3--3--3--3--3--5--|----|--------------------------|
--------------------------|----|--5----5-3-0--3--5--5--5--|
                                                      
--------------------------|---------------------------|
--------------------------|---------------------------|
--------------------------|---------------------------|
--5----5-3-0--3--5--5--5--|--8--8--8-5-0--5--8--8--8--|
                                                         
------------------------------|--------------------------|
------------------------------|--------------------------|
------9--9------9--10--9------|--------------------------|
--10--------10------------10--|--5----5-3-0--3--5--5--5--|
                                                        
--------------------------|----------------------------|
--------------------------|----------------------------|
--------------------------|----------------------------|
--5----5-3-0--3--5--5--5--|--8--8--8-5-0--5--8--8--10--|
                                                          
----------------------------|----------------------------|
----------------------------|----------------------------|
----9--9------9--10--9------|----9--9------9--10--9------|
----------10------------10--|----------10------------10--|


Verse                                                      
--------------------------|--------------------------|
--------------------------|--------------------------|
--0--0--0--0--0--0--0--0--|--0--0--0--0--0--0--0--0--|
--------------------------|--------------------------|
                                                      
--------------------------|--------------------------|
--------------------------|--------------------------|
--3--3--3--3--3--3--3--3--|--5--5--5--3--5--6--5--3--|
--------------------------|--------------------------|
                                                      
--------------------------|--------------------------|
--------------------------|--------------------------|
--0--0--0--0--0--0--0--0--|--0--0--0--0--0--0--0--0--|
--------------------------|--------------------------|
                                                                              
--------------------------|-------------------------|------------------------|
--------------------------|-------------------------|------------------------|
--3--3--3--3--3--3--3--3--|----5--5--5--5--5--5--5--|------0--0--0--0--0--0--|
--------------------------|-------------------------|------------------------|
                                                      
--------------------------|--------------------------|
--------------------------|--------------------------|
--0--0--0--0--0--0--0--0--|--3--3--3--3--3--3--3--3--|
--------------------------|--------------------------|
                                                       
--------------------------|----------------------------|
--------------------------|----------------------------|
--5--5--5--3--5--6--5--3--|--0-0-0-0-0----2-2-2-2-2----|
--------------------------|----------------------------|
                                                                            
---------------------------|------------------------|------------------------|
---------------5--3--2--3--|------3--3--3--2--0--3--|------3--3--3--2--0--2--|
--3-3-3-3-3----------------|------------------------|------------------------|
---------------------------|------------------------|------------------------|
                                                        
----------------------------|---------------------------|
----------------------------|---------------5--3--2--3--|
--0-0-0-0-0----2-2-2-2-2----|--3-3-3-3-3----------------|
----------------------------|---------------------------|
                                                                               
------------------------|--------------------------|--------------------------|
------3--3--3--5--3--2--|--------------------------|--------------------------|
------------------------|--5---5-5--5--5---5-5--5--|--5---5-5--5--5---5-5--5--|
------------------------|--------------------------|--------------------------|


Chorus  x2                                                                            
-------------------------|-------------------------|-------------------------|
-------------------------|-------------------------|-------------------------|
--3----3--3--3--3--3--2--|----2--2--3--3--2--2--2--|--0----0--0--0-----------|
-------------------------|-------------------------|----------------3--0--1--|
                                                                              
-------------------------|
-------------------------|
-------------------------|
----1--1--0--0--1--1--1--|

Verse
                                                                                
Chorus x2

Intro

Intrlude                                                              
------------------|--------|------|------|------|------|------|
------------------|--------|------|------|------|------|------|
--0---------------|--3--3--|------|------|------|------|------|
------------------|--------|------|------|------|------|------|

Bridge x4                                                     
--------------------------|--------------------------|
--------------------------|--------------------------|
--0--0--0--0--0--0--0--0--|--0--0--0--0--0--0--0--0--|
--------------------------|--------------------------|
                                                      
--------------------------|--------------------------|
--------------------------|--------------------------|
--3--3--3--3--3--3--3--3--|--5--5--5--5--5--5--5--5--|
--------------------------|--------------------------|


Chorus x4

Outro
|--------------------------|--------------------------|
|--------------------------|--------------------------|
|--0--0--0--0--0--0--0--0--|--0--0--0--0--0--0--0--0--|
|--------------------------|--------------------------|


                                   
--------------------------|------||
--------------------------|------||
--0--0--0--0--0--0--0--0--|------||
--------------------------|------||
            
Submit corrections

comments powered by Disqus
↑ Back to top | Sentenced Bass for Bleed. Lyrics for acoustic guitar and electric guitar. 1 Tablatures and chords are parodies/interpretations of the original songs. You may use it for private study, scholarship, research or language learning purposes only