» » »

Scary Kids Scaring Kids, My Darkest Hour Bass tabs (ver.2)

Artists:  A B C D E F G H I J K L M N O P Q R S T U V W X Y Z # 

My Darkest Hour Bass tabs (ver.2)

Scary Kids Scaring Kids Tabs
 Rating:
4/5 (4 votes)
My Darkest Hour lessons Tabs too difficult? Try these video lessons and learn fast
                Band - Scary Kids Scaring Kids
Song - My Darkest Hour
This should be about 96% right,Ive played it nd it sounds right to me. Enjoy

INTRO x1
G ----------------------------------------------------------------|
D ----------------------------------------------------------------|
A ---------------222222222222-333333333333-555555555555-----------|
D --000000000000--------------------------------------------------|

G ------------------------------|
D ------------------------------|
A ------------------------------|
D --000000000000--333333333333--|

G ------------------------------------------------------|
D ------------------------------------------------------|
A --00-000-222-222-333-333-555-555-555-555--------------|
D ------------------------------------------------------|
                                   

VERSE x3
G ------------------------------------------|
D ------------------------------------------|
A --3333333333333333----------555555--------|
D --------------------000000----------------|

PRE CHORUS x1
G ------------|
D ------------|
A --33333333--|
D ------------|

CHORUS x2
G ----------------------------------------------------------------|
D ----------------------------------------------------------------|
A ----------------222222222222--333333333333--555555555-----------|
D --000000000000--------------------------------------------------|

POST CHORUS x1
G ------------------------------|
D ------------------------------|
A ------------------------------|
D --000000000000--333333333333--|

G|------------------------------------------------------|
D|------------------------------------------------------|
A|--00-000-222-222-333-333-555-555-555-555--------------|
D|------------------------------------------------------|

VERSE x3
G------------------------------------------|
D ------------------------------------------|
A --3333333333333333----------555555--------|
D --------------------000000----------------|

PRE CHORUS x1
G ------------|
D ------------|
A --33333333--|
D ------------|

CHORUS x2
G ----------------------------------------------------------------|
D ----------------------------------------------------------------|
A ----------------222222222222--333333333333--555555555-----------|
D --000000000000--------------------------------------------------|

POST CHORUS x1
G|------------------------------|
D|------------------------------|
A|------------------------------|
D|--000000000000--333333333333--|

G|------------------------------------------------------|
D|------------------------------------------------------|
A|--00-000-222-222-333-333-555-555-555-555--------------|
D|------------------------------------------------------|

G -------------------------------|
D -------------------------------|
A --555-555-555-555--------------|
D -------------------------------|

BRIDGE x4                  
G ----------------------|  G ---------|
D ----------------------|  D ---------|
A ------5~--3~---0~-----|  A ---------|
D --0~--------------32--|  D --00-00--|

Stop for drums and keyboard

OUTRO x1
G ----------------------------------------------------------------|
D ----------------------------------------------------------------|
A ----------------222222222222--333333333333--555555555555--------|
D --000000000000--------------------------------------------------|

G ------------------------------|
D ------------------------------|
A ------------------------------|
D --000000000000--333333333333--|

G ----------------------------------------|
D ----------------------------------------|
A --00-000-222-222-333-333-555-555--------|
D ----------------------------------------|

G ----------------------------------------|
D ----------------------------------------|
A --00-000-222-222-333-333-555-555--------|
D ----------------------------------------|
            
Submit corrections

comments powered by Disqus
↑ Back to top | Scary Kids Scaring Kids Bass for My Darkest Hour. Lyrics for acoustic guitar and electric guitar. Tablatures and chords are parodies/interpretations of the original songs. You may use it for private study, scholarship, research or language learning purposes only