» » »

Scary Kids Scaring Kids, My Darkest Hour Tabs (ver.1)

Artists:  A B C D E F G H I J K L M N O P Q R S T U V W X Y Z # 

My Darkest Hour Tabs (ver.1)

Scary Kids Scaring Kids Tabs
 Rating:
4/5 (23 votes)
My Darkest Hour lessons Tabs too difficult? Try these video lessons and learn fast
1
                Tuning: Drop D


Intro:
E|-------------------------------------------------------------------------|
B|-------------------------------------------------------------------------|
G|-------------------------------------------------------------------------|
D|--xxxxxxx--000000000000--777777777777--888888888888--101010101010101010--|
A|--xxxxxxx--000000000000--777777777777--888888888888--101010101010101010--|
D|--xxxxxxx--000000000000--777777777777--888888888888--101010101010101010--|

E|---------------------------------------|
B|---------------------------------------|
G|---------------------------------------|
D|--xxxxxxx--000000000000--333333333333--|
A|--xxxxxxx--000000000000--333333333333--|
D|--xxxxxxx--000000000000--333333333333--|

Guitar 1
E|--------------------------------------------------|
B|--------------------------------------------------|
G|--------------------------------------------------|
D|--0030--0020--0050--0030--0030--0020--0232--0232--|
A|--------------------------------------------------|
D|--------------------------------------------------|

Guitar 2
E|---------------------------------------------------------|
B|---------------------------------------------------------|
G|---------------------------------------------------------|
D|--55-555--777-777--888-888--101010-101010-101010-101010--|
A|--55-555--777-777--888-888--101010-101010-101010-101010--|
D|--55-555--777-777--888-888--101010-101010-101010-101010--|

Verse:
Guitar 1
E|--------------------------------------------------------------|
B|----------------------8------------------------------8--------|
G|--10-9--9-7--7-5--5-7---7-5-7----10-9--9-7--7-5--5-7---7-5----|
D|-----------------------------------------------------------7--| x3
A|--------------------------------------------------------------|
D|--------------------------------------------------------------|

E|-----------------------------------------------------------|
B|----------------------8------------------------------------|
G|--10-9--9-7--7-5--5-7---7-5-7------9-10-----10-12---12-14--|
D|---------------------------------0-------0---------0-------|
A|-----------------------------------------------------------|
D|-----------------------------------------------------------|

Guitar 2
E|------------------------------------------|
B|------------------------------------------|
G|------------------------------------------|
D|--8888888888888888--000000--101010101010--| x4
A|--8888888888888888--000000--101010101010--|
D|--8888888888888888--000000--101010101010--|

Chorus:
E|----------------------------------------------------------------|
B|----------------------------------------------------------------|
G|----------------------------------------------------------------|
D|--000000000--777777777--888888888--101010101010101010--xxxxxxx--| x2
A|--000000000--777777777--888888888--101010101010101010--xxxxxxx--|
D|--000000000--777777777--888888888--101010101010101010--xxxxxxx--|

E|---------------------------------|
B|---------------------------------|
G|---------------------------------|
D|--xxxxxxx--000000000--333333333--|
A|--xxxxxxx--000000000--333333333--|
D|--xxxxxxx--000000000--333333333--|

Guitar 1
E|--------------------------------------------------|
B|--------------------------------------------------|
G|--------------------------------------------------|
D|--0030--0020--0050--0030--0030--0020--0232--0232--|
A|--------------------------------------------------|
D|--------------------------------------------------|

Guitar 2
E|---------------------------------------------------------|
B|---------------------------------------------------------|
G|---------------------------------------------------------|
D|--55-555--777-777--888-888--101010-101010-101010-101010--|
A|--55-555--777-777--888-888--101010-101010-101010-101010--|
D|--55-555--777-777--888-888--101010-101010-101010-101010--|


Verse:
Guitar 1
E|--------------------------------------------------------------|
B|----------------------8------------------------------8--------|
G|--10-9--9-7--7-5--5-7---7-5-7----10-9--9-7--7-5--5-7---7-5----|
D|-----------------------------------------------------------7--| x3
A|--------------------------------------------------------------|
D|--------------------------------------------------------------|

E|-----------------------------------------------------------|
B|----------------------8------------------------------------|
G|--10-9--9-7--7-5--5-7---7-5-7------9-10-----10-12---12-14--|
D|---------------------------------0-------0---------0-------|
A|-----------------------------------------------------------|
D|-----------------------------------------------------------|

Guitar 2
E|------------------------------------------|
B|------------------------------------------|
G|------------------------------------------|
D|--8888888888888888--000000--101010101010--| x4
A|--8888888888888888--000000--101010101010--|
D|--8888888888888888--000000--101010101010--|


Chorus:
E|----------------------------------------------------------------|
B|----------------------------------------------------------------|
G|----------------------------------------------------------------|
D|--000000000--777777777--888888888--101010101010101010--xxxxxxx--| x2
A|--000000000--777777777--888888888--101010101010101010--xxxxxxx--|
D|--000000000--777777777--888888888--101010101010101010--xxxxxxx--|

E|---------------------------------|
B|---------------------------------|
G|---------------------------------|
D|--xxxxxxx--000000000--333333333--|
A|--xxxxxxx--000000000--333333333--|
D|--xxxxxxx--000000000--333333333--|


Guitar 1
E|--------------------------------------------------------------|
B|--------------------------------------------------------------|
G|--------------------------------------------------------------|
D|--0030--0020--0050--0030--0030--0020--0232--0232--0232--0232--|
A|--------------------------------------------------------------|
D|--------------------------------------------------------------|

Guitar 2
E|---------------------------------------------------------|
B|---------------------------------------------------------|
G|---------------------------------------------------------|
D|--55-555--777-777--888-888--101010-101010-101010-101010--|
A|--55-555--777-777--888-888--101010-101010-101010-101010--|
D|--55-555--777-777--888-888--101010-101010-101010-101010--|


Verse:
Guitar 1
E|--------------------------------------------------------------|
B|----------------------8------------------------------8--------|
G|--10-9--9-7--7-5--5-7---7-5-7----10-9--9-7--7-5--5-7---7-5----|
D|-----------------------------------------------------------7--|
A|--------------------------------------------------------------|
D|--------------------------------------------------------------|

E|-------------------------------------------------------------------|
B|----------------------8-------------------------------10-----------|
G|--10-9--9-7--7-5--5-7---7-5-7---10-9-9-7--7-5--5-7--9----12-10-9b--|
D|-------------------------------------------------------------------|
A|-------------------------------------------------------------------|
D|-------------------------------------------------------------------|
Repeat Twice

Guitar 2
E|-------------------------|----------------|
B|-------------------------|----------------|
G|-------------------------|----------------|
D|--0--10--8--5--3--2--x4--|----0-0--0-0----|
A|--0--10--8--5--3--2------|----0-0--0-0----|
D|--0--10--8--5--3--2------|----0-0--0-0----|


Outro:
E|------------------------------------------------------------------------|
B|------------------------------------------------------------------------|
G|------------------------------------------------------------------------|
D|--xxxxxx--000000000000--777777777777--888888888888--101010101010101010--|
A|--xxxxxx--000000000000--777777777777--888888888888--101010101010101010--|
D|--xxxxxx--000000000000--777777777777--888888888888--101010101010101010--|

E|---------------------------------------|
B|---------------------------------------|
G|---------------------------------------|
D|--xxxxxxx--000000000000--333333333333--|
A|--xxxxxxx--000000000000--333333333333--|
D|--xxxxxxx--000000000000--333333333333--|

Guitar 1
E|--------------------------------------------|
B|--------------------------------------------|
G|--------------------------------------------|
D|--0030--0020--0050--0030--0030--0020--0232--|
A|--------------------------------------------|
D|--------------------------------------------|

E|---------------------------------------------------------------|
B|---------------------------------------------------------------|
G|---------------------------------------------------------------|
D|--0030--0020--0050--0030--0030--0020--0232--0232--0232----0-0--|
A|----------------------------------------------------------0-0--|
D|----------------------------------------------------------0-0--|

Guitar 2
E|--------------------------------------------|
B|--------------------------------------------|
G|--------------------------------------------|
D|--55-555--777-777--888-888--101010--101010--|
A|--55-555--777-777--888-888--101010--101010--|
D|--55-555--777-777--888-888--101010--101010--|

E|-------------------------------------------|
B|-------------------------------------------|
G|-------------------------------------------|
D|--0--2--3--2--0--2--3--2--0--2--3--2--0-0--|
A|--0--2--3--2--0--2--3--2--0--2--3--2--0-0--|
D|--0--2--3--2--0--2--3--2--0--2--3--2--0-0--|
            
Submit corrections

comments powered by Disqus
↑ Back to top | Scary Kids Scaring Kids Tabs for My Darkest Hour. Lyrics for acoustic guitar and electric guitar. 1 Tablatures and chords are parodies/interpretations of the original songs. You may use it for private study, scholarship, research or language learning purposes only