>
 >
My Darkest Hour 1

My Darkest Hour 1 Guitar Tabs

Scary Kids Scaring Kids - My Darkest Hour 1 chords, tabs, tablatures, lyrics

Guitar lessons | Add/correct | Request | Top 50 tabs Artists:  A B C D E F G H I J K L M N O P Q R S T U V W X Y Z 0-9

My Darkest Hour 1 Guitar Tabs – Scary Kids Scaring Kids

CD, Sheet music, Poster

Do you like My Darkest Hour 1? Share with your friends now
Bass TabsBass Tabs v2TabsTabs v2

MY DARKEST HOUR
As recorded by Scary Kids Scaring Kids

        



Gtr I (D A D G B E) - 'Untitled'
Gtr II (D A D G B E) - 'Untitled'
Gtr III (D A D G B E) - 'Untitled'

 Intro
  Q=205
 4/4
  Gtr I
  Wx3
|--------|
|--------|
|--------|
|--------|
|--------|
|--------|


  H    E E E E   +E  E E E E E E E   E E E E E E E E
|--------------|-------------------|-----------------|
|--------------|-------------------|-----------------|
|------x-x-x-7-|-(7)-7-7-7-7-7-7-7-|-7-7-7-7-7-7-7---|
|------x-x-x-7-|-(7)-7-7-7-7-7-7-7-|-7-7-7-7-7-7-7-7-|
|------x-x-x-5-|-(5)-5-5-5-5-5-5-5-|-5-5-5-5-5-5-5-7-|
|--------------|-------------------|---------------7-|
|
| Gtr II
| H    E E E E   +E  E E E E E E E   E E E E E E E E
|--------------|-------------------|-----------------|
|--------------|-------------------|-----------------|
|--------------|-------------------|-----------------|
|------x-x-x-0-|-(0)-0-0-0-0-0-0-0-|-0-0-0-0-0-0-0-7-|
|------x-x-x-0-|-(0)-0-0-0-0-0-0-0-|-0-0-0-0-0-0-0-7-|
|------x-x-x-0-|-(0)-0-0-0-0-0-0-0-|-0-0-0-0-0-0-0-7-|


  +E  E E E E E E E   E E E E E E E E
|-------------------|-----------------|
|-------------------|-----------------|
|-------------------|-----------------|
|-(7)-7-7-7-7-7-7-7-|-7-7-7-7-7-7-7-8-|
|-(7)-7-7-7-7-7-7-7-|-7-7-7-7-7-7-7-8-|
|-(7)-7-7-7-7-7-7-7-|-7-7-7-7-7-7-7-8-|
|
| +E  E E E E E E E   E E E E E E E E
|-------------------|-----------------|
|-------------------|-----------------|
|-------------------|-----------------|
|-(7)-7-7-7-7-7-7-7-|-7-7-7-7-7-7-7-8-|
|-(7)-7-7-7-7-7-7-7-|-7-7-7-7-7-7-7-8-|
|-(7)-7-7-7-7-7-7-7-|-7-7-7-7-7-7-7-8-|


  +E  E E E E E E E   E E E E E E E  E
|-------------------|------------------|
|-------------------|------------------|
|-------------------|------------------|
|-(8)-8-8-8-8-8-8-8-|-8-8-8-8-8-8-8-10-|
|-(8)-8-8-8-8-8-8-8-|-8-8-8-8-8-8-8-10-|
|-(8)-8-8-8-8-8-8-8-|-8-8-8-8-8-8-8-10-|
|
| +E  E E E E E E E   E E E E E E E  E
|-------------------|------------------|
|-------------------|------------------|
|-------------------|------------------|
|-(8)-8-8-8-8-8-8-8-|-8-8-8-8-8-8-8-10-|
|-(8)-8-8-8-8-8-8-8-|-8-8-8-8-8-8-8-10-|
|-(8)-8-8-8-8-8-8-8-|-8-8-8-8-8-8-8-10-|


   +E   E  E  E  E  E  E  E    E  E  E  E  E  E  E E
|---------------------------|------------------------|
|---------------------------|------------------------|
|---------------------------|----------------------7-|
|-(10)-10-10-10-10-10-10-10-|-10-10-10-10--x--x--x-7-|
|-(10)-10-10-10-10-10-10-10-|-10-10-10-10--x--x--x-5-|
|-(10)-10-10-10-10-10-10-10-|-10-10-10-10--x--x--x---|
|
|  +E   E  E  E  E  E  E  E    E  E  E  E  E  E  E E
|---------------------------|------------------------|
|---------------------------|------------------------|
|---------------------------|------------------------|
|-(10)-10-10-10-10-10-10-10-|-10-10-10-10-10-10-10-0-|
|-(10)-10-10-10-10-10-10-10-|-10-10-10-10-10-10-10-0-|
|-(10)-10-10-10-10-10-10-10-|-10-10-10-10-10-10-10-0-|


  +E  E E E E E E E   E E E E E E E E   +E  E E E E E E E   E E E E E E E E
|-------------------|-----------------|-------------------|-----------------|
|-------------------|-----------------|-------------------|-----------------|
|-(7)-7-7-7-7-7-7-7-|-7-7-7-7-7-7-7---|-------------------|-----------------|
|-(7)-7-7-7-7-7-7-7-|-7-7-7-7-7-7-7-3-|-(3)-3-3-3-3-3-3-3-|-3-3-3-3-3-3-3-3-|
|-(5)-5-5-5-5-5-5-5-|-5-5-5-5-5-5-5-3-|-(3)-3-3-3-3-3-3-3-|-3-3-3-3-3-3-3-3-|
|-------------------|---------------3-|-(3)-3-3-3-3-3-3-3-|-3-3-3-3-3-3-3-3-|
|
| +E  E E E E E E E   E E E E E E E E   +E  E E E E E E E   E E E E E E E E
|-------------------|-----------------|-------------------|-----------------|
|-------------------|-----------------|-------------------|-----------------|
|-------------------|-----------------|-------------------|-----------------|
|-(0)-0-0-0-0-0-0-0-|-0-0-0-0-0-0-0-3-|-(3)-3-3-3-3-3-3-3-|-3-3-3-3-3-3-3-3-|
|-(0)-0-0-0-0-0-0-0-|-0-0-0-0-0-0-0-3-|-(3)-3-3-3-3-3-3-3-|-3-3-3-3-3-3-3-3-|
|-(0)-0-0-0-0-0-0-0-|-0-0-0-0-0-0-0-3-|-(3)-3-3-3-3-3-3-3-|-3-3-3-3-3-3-3-3-|


  PM|     PM|       PM|     PM|
  E E E E E E E E   E E E E E E E E
|-----------------|-----------------|
|-----------------|-----------------|
|-----------------|-----------------|
|-0-0-7p0-0-0-5p0-|-0-0-8p0-0-0-7p0-|
|-----------------|-----------------|
|-----------------|-----------------|
|
| PM---------------------------------
| E E E E E E E E   E E E E E E E E
|-----------------|-----------------|
|-----------------|-----------------|
|-----------------|-----------------|
|-----------------|-----------------|
|-5-5-5-5-5-5-5-5-|-7-7-7-7-7-7-7-7-|
|-5-5-5-5-5-5-5-5-|-7-7-7-7-7-7-7-7-|


  PM|     PM|
  E E E E E E E E   E E E E E E E E   E E E E E E E E
|-----------------|-----------------|-----------------|
|-----------------|-----------------|-----------------|
|-----------------|-----------------|-----------------|
|-0-0-7p0-0-0-5p0-|-3p0-5p0-7p0-5p0-|-3p0-5p0-7p0-5-0-|
|-----------------|-----------------|-----------------|
|-----------------|-----------------|-----------------|
|
|---------------|
| E E E E E E E E   E E E E E E E E   E E E E E E E E
|-----------------|-----------------|-----------------|
|-----------------|-----------------|-----------------|
|-----------------|-----------------|-----------------|
|-----------------|-----------------|---------------8-|
|-8-8-8-8-8-8-8-8-|-5p0-7p0-8p0-7p0-|-5p0-7p0-8p0-7-8-|
|-8-8-8-8-8-8-8-8-|-----------------|---------------8-|


   Verse
     E  E E E E E E E   E E E E E E E E   E E E E E E E E   E E E E E E E E
||--------------------|-----------------|-----------------|------------------|
||o-----6p5---5p3-----|---------6-------|---6p5---5p3-----|---------6--------|
||------------------7-|-5-x-5h7---7-5h7-|---------------7-|-5-x-5h7---7-5----|
||--------------------|-----------------|-----------------|---------------7--|
||o-------------------|-----------------|-----------------|------------------|
||--------------------|-----------------|-----------------|------------------|
|
|   +E  E E E E E E E   E E E E E E E E   E E E E E E E E   E E E E E E E E
||--------------------|-----------------|-----------------|------------------|
||o-------------------|-----------------|-----------------|------------------|
||--------------------|-----------------|-----------------|------------------|
||--(8)-8-8-8-8-8-8-8-|-8-8-8-8-8-8-8-8-|-8-8-8-8-8-8-8-8-|-8-8-8-8-8-8-8-0--|
||o-(8)-8-8-8-8-8-8-8-|-8-8-8-8-8-8-8-8-|-8-8-8-8-8-8-8-8-|-8-8-8-8-8-8-8-0--|
||--(8)-8-8-8-8-8-8-8-|-8-8-8-8-8-8-8-8-|-8-8-8-8-8-8-8-8-|-8-8-8-8-8-8-8-0--|


   E  E E E E E E  E     E   E  E  E  E  E  E E
|--------------------|---------------------------||
|-----6p5---5p3------|----------------6---------o||
|------------------7-|---5---x--5h=7-----7--5h7--||
|--------------------|---------------------------||
|--------------------|--------------------------o||
|--------------------|---------------------------||
|
| +E  E E E E E E  E    +E   E  E  E  E  E  E E
|--------------------|---------------------------||
|--------------------|--------------------------o||
|--------------------|---------------------------||
|-(0)-0-0-0-0-0-0-10-|-(10)-10-10-10-10-10-10-8--||
|-(0)-0-0-0-0-0-0-10-|-(10)-10-10-10-10-10-10-8-o||
|-(0)-0-0-0-0-0-0-10-|-(10)-10-10-10-10-10-10-8--||


   E  E E E E E E E   E E E E E E E E
|-------------------|-----------------|
|-----6p5---5p3-----|---------6-------|
|-----------------7-|-5-x-5h7---7-5h7-|
|-------------------|-----------------|
|-------------------|-----------------|
|-------------------|-----------------|
|
| +E  E E E E E E E   E E E E E E E E
|-------------------|-----------------|
|-------------------|-----------------|
|-------------------|-----------------|
|-(8)-8-8-8-8-8-8-8-|-8-8-8-8-8-8-8-0-|
|-(8)-8-8-8-8-8-8-8-|-8-8-8-8-8-8-8-0-|
|-(8)-8-8-8-8-8-8-8-|-8-8-8-8-8-8-8-0-|


   E  E E E E E E  E     E   E  E  E  E  E  E E
|--------------------|--------------------------|
|-----6p5---5p3------|----------------6---------|
|------------------7-|---5---x--5h=7-----7--5h7-|
|--------------------|--------------------------|
|--------------------|--------------------------|
|--------------------|--------------------------|
|
| +E  E E E E E E  E    +E   E  E  E  E  E  E E
|--------------------|--------------------------|
|--------------------|--------------------------|
|--------------------|--------------------------|
|-(0)-0-0-0-0-0-0-10-|-(10)-10-10-10-10-10-10-8-|
|-(0)-0-0-0-0-0-0-10-|-(10)-10-10-10-10-10-10-8-|
|-(0)-0-0-0-0-0-0-10-|-(10)-10-10-10-10-10-10-8-|


   E  E E E E E E E   E E E E E E E  E
|-------------------|------------------|
|-----6p5---5p3-----|---------6--------|
|-----------------7-|-5-x-5h7---7-5h=7-|
|-------------------|------------------|
|-------------------|------------------|
|-------------------|------------------|
|
| +E  E E E E E E E   E E E E E E E  E
|-------------------|------------------|
|-------------------|------------------|
|-------------------|------------------|
|-(8)-8-8-8-8-8-8-8-|-8-8-8-8-8-8-8-10-|
|-(8)-8-8-8-8-8-8-8-|-8-8-8-8-8-8-8-10-|
|-(8)-8-8-8-8-8-8-8-|-8-8-8-8-8-8-8-10-|


    E   E  E  E  E  E  E  E    Q   Q  Q  E E
|---------------------------|----------------||
|-------5--6-----6--8-----8-|-10\------------||
|---------------------------|--------------7-||
|---------------------------|--------------7-||
|---------------------------|--------------5-||
|---------------------------|----------------||
|
|  +E   E  E  E  E  E  E  E    Q   Q  Q  E E
|---------------------------|----------------||
|---------------------------|----------------||
|---------------------------|----------------||
|-(10)-10-10-10-10-10-10-10-|-10-----------0-||
|-(10)-10-10-10-10-10-10-10-|-10-----------0-||
|-(10)-10-10-10-10-10-10-10-|-10-----------0-||


   Chorus
    +E  E E E E E E E   E E E E E E E E   +E  E E E E E E E   E E E E E E E E
||--------------------|-----------------|-------------------|------------------|
||o-------------------|-----------------|-------------------|------------------|
||--(7)-7-7-7-7-7-7-7-|-7-7-7-7-7-7-7---|-------------------|------------------|
||--(7)-7-7-7-7-7-7-7-|-7-7-7-7-7-7-7-7-|-(7)-7-7-7-7-7-7-7-|-7-7-7-7-7-7-7-8--|
||o-(5)-5-5-5-5-5-5-5-|-5-5-5-5-5-5-5-7-|-(7)-7-7-7-7-7-7-7-|-7-7-7-7-7-7-7-8--|
||--------------------|---------------7-|-(7)-7-7-7-7-7-7-7-|-7-7-7-7-7-7-7-8--|
|
|   +E  E E E E E E E   E E E E E E E E   +E  E E E E E E E   E E E E E E E E
||--------------------|-----------------|-------------------|------------------|
||o-------------------|-----------------|-------------------|------------------|
||--------------------|-----------------|-------------------|------------------|
||--(0)-0-0-0-0-0-0-0-|-0-0-0-0-0-0-0-7-|-(7)-7-7-7-7-7-7-7-|-7-7-7-7-7-7-7-8--|
||o-(0)-0-0-0-0-0-0-0-|-0-0-0-0-0-0-0-7-|-(7)-7-7-7-7-7-7-7-|-7-7-7-7-7-7-7-8--|
||--(0)-0-0-0-0-0-0-0-|-0-0-0-0-0-0-0-7-|-(7)-7-7-7-7-7-7-7-|-7-7-7-7-7-7-7-8--|


  +E  E E E E E E E   E E E E E E E  E
|-------------------|------------------|
|-------------------|------------------|
|-------------------|------------------|
|-(8)-8-8-8-8-8-8-8-|-8-8-8-8-8-8-8-10-|
|-(8)-8-8-8-8-8-8-8-|-8-8-8-8-8-8-8-10-|
|-(8)-8-8-8-8-8-8-8-|-8-8-8-8-8-8-8-10-|
|
| +E  E E E E E E E   E E E E E E E  E
|-------------------|------------------|
|-------------------|------------------|
|-------------------|------------------|
|-(8)-8-8-8-8-8-8-8-|-8-8-8-8-8-8-8-10-|
|-(8)-8-8-8-8-8-8-8-|-8-8-8-8-8-8-8-10-|
|-(8)-8-8-8-8-8-8-8-|-8-8-8-8-8-8-8-10-|


   +E   E  E  E  E  E  E  E    E  E  E  E  E  E  E E
|---------------------------|-------------------------||
|---------------------------|------------------------o||
|---------------------------|----------------------7--||
|-(10)-10-10-10-10-10-10-10-|-10-10-10-10--x--x--x-7--||
|-(10)-10-10-10-10-10-10-10-|-10-10-10-10--x--x--x-5-o||
|-(10)-10-10-10-10-10-10-10-|-10-10-10-10--x--x--x----||
|
|  +E   E  E  E  E  E  E  E    E  E  E  E  E  E  E E
|---------------------------|-------------------------||
|---------------------------|------------------------o||
|---------------------------|-------------------------||
|-(10)-10-10-10-10-10-10-10-|-10-10-10-10-10-10-10-0--||
|-(10)-10-10-10-10-10-10-10-|-10-10-10-10-10-10-10-0-o||
|-(10)-10-10-10-10-10-10-10-|-10-10-10-10-10-10-10-0--||


  +E  E E E E E E E   E E E E E E E E   +E  E E E E E E E   E E E E E E E E
|-------------------|-----------------|-------------------|-----------------|
|-------------------|-----------------|-------------------|-----------------|
|-(7)-7-7-7-7-7-7-7-|-7-7-7-7-7-7-7---|-------------------|-----------------|
|-(7)-7-7-7-7-7-7-7-|-7-7-7-7-7-7-7-3-|-(3)-3-3-3-3-3-3-3-|-3-3-3-3-3-3-3-3-|
|-(5)-5-5-5-5-5-5-5-|-5-5-5-5-5-5-5-3-|-(3)-3-3-3-3-3-3-3-|-3-3-3-3-3-3-3-3-|
|-------------------|---------------3-|-(3)-3-3-3-3-3-3-3-|-3-3-3-3-3-3-3-3-|
|
| +E  E E E E E E E   E E E E E E E E   +E  E E E E E E E   E E E E E E E E
|-------------------|-----------------|-------------------|-----------------|
|-------------------|-----------------|-------------------|-----------------|
|-------------------|-----------------|-------------------|-----------------|
|-(0)-0-0-0-0-0-0-0-|-0-0-0-0-0-0-0-3-|-(3)-3-3-3-3-3-3-3-|-3-3-3-3-3-3-3-3-|
|-(0)-0-0-0-0-0-0-0-|-0-0-0-0-0-0-0-3-|-(3)-3-3-3-3-3-3-3-|-3-3-3-3-3-3-3-3-|
|-(0)-0-0-0-0-0-0-0-|-0-0-0-0-0-0-0-3-|-(3)-3-3-3-3-3-3-3-|-3-3-3-3-3-3-3-3-|


  PM|     PM|       PM|     PM|       PM|     PM|
  E E E E E E E E   E E E E E E E E   E E E E E E E E
|-----------------|-----------------|-----------------|
|-----------------|-----------------|-----------------|
|-----------------|-----------------|-----------------|
|-0-0-7p0-0-0-5p0-|-0-0-8p0-0-0-7p0-|-0-0-7p0-0-0-5p0-|
|-----------------|-----------------|-----------------|
|-----------------|-----------------|-----------------|
|
| PM------------------------------------------------|
| E E E E E E E E   E E E E E E E E   E E E E E E E E
|-----------------|-----------------|-----------------|
|-----------------|-----------------|-----------------|
|-----------------|-----------------|-----------------|
|-----------------|-----------------|-----------------|
|-5-5-5-5-5-5-5-5-|-7-7-7-7-7-7-7-7-|-8-8-8-8-8-8-8-8-|
|-5-5-5-5-5-5-5-5-|-7-7-7-7-7-7-7-7-|-8-8-8-8-8-8-8-8-|


  E E E E E E E E   E E E E E E E E
|-----------------|-----------------||
|-----------------|-----------------||
|-----------------|-----------------||
|-3p0-5p0-7p0-5p0-|-3p0-5p0-7p0-5-0-||
|-----------------|-----------------||
|-----------------|-----------------||
|
| E E E E E E E E   E E E E E E E E
|-----------------|-----------------||
|-----------------|-----------------||
|-----------------|-----------------||
|-----------------|---------------8-||
|-5p0-7p0-8p0-7p0-|-5p0-7p0-8p0-7-8-||
|-----------------|---------------8-||


   Verse
     E  E E E E E E E   E E E E E E E E   E E E E E E E E   E E E E E E E E
||--------------------|-----------------|-----------------|------------------|
||o-----6p5---5p3-----|---------6-------|---6p5---5p3-----|---------6--------|
||------------------7-|-5-x-5h7---7-5h7-|---------------7-|-5-x-5h7---7-5----|
||--------------------|-----------------|-----------------|---------------7--|
||o-------------------|-----------------|-----------------|------------------|
||--------------------|-----------------|-----------------|------------------|
|
|   +E  E E E E E E E   E E E E E E E E   E E E E E E E E   E E E E E E E E
||--------------------|-----------------|-----------------|------------------|
||o-------------------|-----------------|-----------------|------------------|
||--------------------|-----------------|-----------------|------------------|
||--(8)-8-8-8-8-8-8-8-|-8-8-8-8-8-8-8-8-|-8-8-8-8-8-8-8-8-|-8-8-8-8-8-8-8-0--|
||o-(8)-8-8-8-8-8-8-8-|-8-8-8-8-8-8-8-8-|-8-8-8-8-8-8-8-8-|-8-8-8-8-8-8-8-0--|
||--(8)-8-8-8-8-8-8-8-|-8-8-8-8-8-8-8-8-|-8-8-8-8-8-8-8-8-|-8-8-8-8-8-8-8-0--|


   E  E E E E E E  E     E   E  E  E  E  E  E E
|--------------------|---------------------------||
|-----6p5---5p3------|----------------6---------o||
|------------------7-|---5---x--5h=7-----7--5h7--||
|--------------------|---------------------------||
|--------------------|--------------------------o||
|--------------------|---------------------------||
|
| +E  E E E E E E  E    +E   E  E  E  E  E  E E
|--------------------|---------------------------||
|--------------------|--------------------------o||
|--------------------|---------------------------||
|-(0)-0-0-0-0-0-0-10-|-(10)-10-10-10-10-10-10-8--||
|-(0)-0-0-0-0-0-0-10-|-(10)-10-10-10-10-10-10-8-o||
|-(0)-0-0-0-0-0-0-10-|-(10)-10-10-10-10-10-10-8--||


   E  E E E E E E E   E E E E E E E E
|-------------------|-----------------|
|-----6p5---5p3-----|---------6-------|
|-----------------7-|-5-x-5h7---7-5h7-|
|-------------------|-----------------|
|-------------------|-----------------|
|-------------------|-----------------|
|
| +E  E E E E E E E   E E E E E E E E
|-------------------|-----------------|
|-------------------|-----------------|
|-------------------|-----------------|
|-(8)-8-8-8-8-8-8-8-|-8-8-8-8-8-8-8-0-|
|-(8)-8-8-8-8-8-8-8-|-8-8-8-8-8-8-8-0-|
|-(8)-8-8-8-8-8-8-8-|-8-8-8-8-8-8-8-0-|


   E  E E E E E E  E     E   E  E  E  E  E  E E
|--------------------|--------------------------|
|-----6p5---5p3------|----------------6---------|
|------------------7-|---5---x--5h=7-----7--5h7-|
|--------------------|--------------------------|
|--------------------|--------------------------|
|--------------------|--------------------------|
|
| +E  E E E E E E  E    +E   E  E  E  E  E  E E
|--------------------|--------------------------|
|--------------------|--------------------------|
|--------------------|--------------------------|
|-(0)-0-0-0-0-0-0-10-|-(10)-10-10-10-10-10-10-8-|
|-(0)-0-0-0-0-0-0-10-|-(10)-10-10-10-10-10-10-8-|
|-(0)-0-0-0-0-0-0-10-|-(10)-10-10-10-10-10-10-8-|


  E E E E E E E E   E E E E E E E  E
|-----------------|------------------|
|---6p5---5p3-----|---------6--------|
|---------------7-|-5-x-5h7---7-5h=7-|
|-----------------|------------------|
|-----------------|------------------|
|-----------------|------------------|
|
| E E E E E E E E   E E E E E E E  E
|-----------------|------------------|
|-----------------|------------------|
|-----------------|------------------|
|-8-8-8-8-8-8-8-8-|-8-8-8-8-8-8-8-10-|
|-8-8-8-8-8-8-8-8-|-8-8-8-8-8-8-8-10-|
|-8-8-8-8-8-8-8-8-|-8-8-8-8-8-8-8-10-|


    E   E  E  E  E  E  E  E    Q   Q  Q  E E
|---------------------------|----------------||
|-------5--6-----6--8-----8-|-10\------------||
|---------------------------|--------------7-||
|---------------------------|--------------7-||
|---------------------------|--------------5-||
|---------------------------|----------------||
|
|  +E   E  E  E  E  E  E  E    Q   Q  Q  E E
|---------------------------|----------------||
|---------------------------|----------------||
|---------------------------|----------------||
|-(10)-10-10-10-10-10-10-10-|-10-----------0-||
|-(10)-10-10-10-10-10-10-10-|-10-----------0-||
|-(10)-10-10-10-10-10-10-10-|-10-----------0-||


   Chorus
    +E  E E E E E E E   E E E E E E E E   +E  E E E E E E E   E E E E E E E E
||--------------------|-----------------|-------------------|------------------|
||o-------------------|-----------------|-------------------|------------------|
||--(7)-7-7-7-7-7-7-7-|-7-7-7-7-7-7-7---|-------------------|------------------|
||--(7)-7-7-7-7-7-7-7-|-7-7-7-7-7-7-7-7-|-(7)-7-7-7-7-7-7-7-|-7-7-7-7-7-7-7-8--|
||o-(5)-5-5-5-5-5-5-5-|-5-5-5-5-5-5-5-7-|-(7)-7-7-7-7-7-7-7-|-7-7-7-7-7-7-7-8--|
||--------------------|---------------7-|-(7)-7-7-7-7-7-7-7-|-7-7-7-7-7-7-7-8--|
|
|   +E  E E E E E E E   E E E E E E E E   +E  E E E E E E E   E E E E E E E E
||--------------------|-----------------|-------------------|------------------|
||o-------------------|-----------------|-------------------|------------------|
||--------------------|-----------------|-------------------|------------------|
||--(0)-0-0-0-0-0-0-0-|-0-0-0-0-0-0-0-7-|-(7)-7-7-7-7-7-7-7-|-7-7-7-7-7-7-7-8--|
||o-(0)-0-0-0-0-0-0-0-|-0-0-0-0-0-0-0-7-|-(7)-7-7-7-7-7-7-7-|-7-7-7-7-7-7-7-8--|
||--(0)-0-0-0-0-0-0-0-|-0-0-0-0-0-0-0-7-|-(7)-7-7-7-7-7-7-7-|-7-7-7-7-7-7-7-8--|


  +E  E E E E E E E   E E E E E E E  E
|-------------------|------------------|
|-------------------|------------------|
|-------------------|------------------|
|-(8)-8-8-8-8-8-8-8-|-8-8-8-8-8-8-8-10-|
|-(8)-8-8-8-8-8-8-8-|-8-8-8-8-8-8-8-10-|
|-(8)-8-8-8-8-8-8-8-|-8-8-8-8-8-8-8-10-|
|
| +E  E E E E E E E   E E E E E E E  E
|-------------------|------------------|
|-------------------|------------------|
|-------------------|------------------|
|-(8)-8-8-8-8-8-8-8-|-8-8-8-8-8-8-8-10-|
|-(8)-8-8-8-8-8-8-8-|-8-8-8-8-8-8-8-10-|
|-(8)-8-8-8-8-8-8-8-|-8-8-8-8-8-8-8-10-|


   +E   E  E  E  E  E  E  E    E  E  E  E  E  E  E E
|---------------------------|-------------------------||
|---------------------------|------------------------o||
|---------------------------|----------------------7--||
|-(10)-10-10-10-10-10-10-10-|-10-10-10-10--x--x--x-7--||
|-(10)-10-10-10-10-10-10-10-|-10-10-10-10--x--x--x-5-o||
|-(10)-10-10-10-10-10-10-10-|-10-10-10-10--x--x--x----||
|
|  +E   E  E  E  E  E  E  E    E  E  E  E  E  E  E E
|---------------------------|-------------------------||
|---------------------------|------------------------o||
|---------------------------|-------------------------||
|-(10)-10-10-10-10-10-10-10-|-10-10-10-10-10-10-10-0--||
|-(10)-10-10-10-10-10-10-10-|-10-10-10-10-10-10-10-0-o||
|-(10)-10-10-10-10-10-10-10-|-10-10-10-10-10-10-10-0--||


  +E  E E E E E E E   E E E E E E E E   +E  E E E E E E E   E E E E E E E E
|-------------------|-----------------|-------------------|-----------------|
|-------------------|-----------------|-------------------|-----------------|
|-(7)-7-7-7-7-7-7-7-|-7-7-7-7-7-7-7---|-------------------|-----------------|
|-(7)-7-7-7-7-7-7-7-|-7-7-7-7-7-7-7-3-|-(3)-3-3-3-3-3-3-3-|-3-3-3-3-3-3-3-3-|
|-(5)-5-5-5-5-5-5-5-|-5-5-5-5-5-5-5-3-|-(3)-3-3-3-3-3-3-3-|-3-3-3-3-3-3-3-3-|
|-------------------|---------------3-|-(3)-3-3-3-3-3-3-3-|-3-3-3-3-3-3-3-3-|
|
| +E  E E E E E E E   E E E E E E E E   +E  E E E E E E E   E E E E E E E E
|-------------------|-----------------|-------------------|-----------------|
|-------------------|-----------------|-------------------|-----------------|
|-------------------|-----------------|-------------------|-----------------|
|-(0)-0-0-0-0-0-0-0-|-0-0-0-0-0-0-0-3-|-(3)-3-3-3-3-3-3-3-|-3-3-3-3-3-3-3-3-|
|-(0)-0-0-0-0-0-0-0-|-0-0-0-0-0-0-0-3-|-(3)-3-3-3-3-3-3-3-|-3-3-3-3-3-3-3-3-|
|-(0)-0-0-0-0-0-0-0-|-0-0-0-0-0-0-0-3-|-(3)-3-3-3-3-3-3-3-|-3-3-3-3-3-3-3-3-|


  PM|     PM|       PM|     PM|       PM|     PM|
  E E E E E E E E   E E E E E E E E   E E E E E E E E
|-----------------|-----------------|-----------------|
|-----------------|-----------------|-----------------|
|-----------------|-----------------|-----------------|
|-0-0-7p0-0-0-5p0-|-0-0-8p0-0-0-7p0-|-0-0-7p0-0-0-5p0-|
|-----------------|-----------------|-----------------|
|-----------------|-----------------|-----------------|
|
| PM------------------------------------------------|
| E E E E E E E E   E E E E E E E E   E E E E E E E E
|-----------------|-----------------|-----------------|
|-----------------|-----------------|-----------------|
|-----------------|-----------------|-----------------|
|-----------------|-----------------|-----------------|
|-5-5-5-5-5-5-5-5-|-7-7-7-7-7-7-7-7-|-8-8-8-8-8-8-8-8-|
|-5-5-5-5-5-5-5-5-|-7-7-7-7-7-7-7-7-|-8-8-8-8-8-8-8-8-|


  E E E E E E E E   E E E E E E E E   E E E E E E E E   E E E E E E E E
|-----------------|-----------------|-----------------|-----------------|
|-----------------|-----------------|-----------------|-----------------|
|-----------------|-----------------|-----------------|-----------------|
|-3p0-5p0-7p0-5p0-|-3p0-5p0-7p0-5-0-|-3p0-5p0-7p0-5p0-|-3p0-5p0-7p0-5-0-|
|-----------------|-----------------|-----------------|-----------------|
|-----------------|-----------------|-----------------|-----------------|
|
| E E E E E E E E   E E E E E E E E   E E E E E E E E   E E E E E E E E
|-----------------|-----------------|-----------------|-----------------|
|-----------------|-----------------|-----------------|-----------------|
|-----------------|-----------------|-----------------|-----------------|
|-----------------|-----------------|-----------------|-----------------|
|-5p0-7p0-8p0-7p0-|-5p0-7p0-8p0-7p0-|-5p0-7p0-8p0-7p0-|-5p0-7p0-8p0-7p0-|
|-----------------|-----------------|-----------------|-----------------|


 Bridge
  E E E E E E E E    E  E E E E E E E    E E E E E E E E     E  E E E E E Q
|-----------------|-------------------|------------------|--------------------|
|---6p5---5p3-----|-----------6-------|----6p5---5p3-----|------------6-------|
|---------------7-|--5--x-5h7---7-5h7-|----------------7-|---5--x-5h7---7-5\--|
|-----------------|-------------------|------------------|--------------------|
|-----------------|-------------------|------------------|--------------------|
|-----------------|-------------------|------------------|--------------------|
|
| W                 +W                   W                  +W
|-----------------|-------------------|------------------|--------------------|
|-----------------|-------------------|------------------|--------------------|
|-----------------|-------------------|------------------|--------------------|
|-0---------------|-(0)---------------|-10---------------|-(10)---------------|
|-0---------------|-(0)---------------|-10---------------|-(10)---------------|
|-0---------------|-(0)---------------|-10---------------|-(10)---------------|


  E E E E E E E E    E  E E E E E E E   E E E E E E E E   E E E E S E. S  E.
|-----------------|-------------------|-----------------|--------------------|
|---6p5---5p3-----|-----------6-------|---6p5---5p3-----|---------6h8--8h10\-|
|---------------7-|--5--x-5h7---7-5h7-|---------------7-|-5-x-5h7------------|
|-----------------|-------------------|-----------------|--------------------|
|-----------------|-------------------|-----------------|--------------------|
|-----------------|-------------------|-----------------|--------------------|
|
| W                 +W                  W                 H       H
|-----------------|-------------------|-----------------|--------------------|
|-----------------|-------------------|-----------------|--------------------|
|-----------------|-------------------|-----------------|--------------------|
|-8---------------|-(8)---------------|-5---------------|-3-------2----------|
|-8---------------|-(8)---------------|-5---------------|-3-------2----------|
|-8---------------|-(8)---------------|-5---------------|-3-------2----------|


    E  E E E  E  E E  E    E  E E  E  E  E E  E
||----------------------|-----------------------|
||o----6p5----5p=3------|-------------6---------|
||--------------------7-|--5--x-5h=7-----7-5h=7-|
||----------------------|-----------------------|
||o---------------------|-----------------------|
||----------------------|-----------------------|
|
|   E  E E E  E  E E  E    E  E E  E  E  E E  E
||----------------------|-----------------------|
||o---10p8--------------|------------10---------|
||-----------12p10---10-|--9--x-9h10----10-9h10-|
||----------------------|-----------------------|
||o---------------------|-----------------------|
||----------------------|-----------------------|
|
|   Gtr III
|   W                     +W
||----------------------|-----------------------|
||o---------------------|-----------------------|
||----------------------|-----------------------|
||--0-------------------|-(0)-------------------|
||o-0-------------------|-(0)-------------------|
||--0-------------------|-(0)-------------------|


   E  E E E  E  E E  E     E  E E  E  E  E E  E
|----------------------|-------------------------|
|-----6p5----5p=3------|--------------6----------|
|--------------------7-|---5--x-5h=7-----7-5-----|
|----------------------|----------------------7--|
|----------------------|-------------------------|
|----------------------|-------------------------|
|
|  E  E E E  E  E E  E     E  E E  E  E  E E  E
|----------------------|-------------------------|
|----10p8--------------|-------------10----------|
|-----------12p10---10-|---9--x-9h10----10-9-----|
|----------------------|---------------------10--|
|----------------------|-------------------------|
|----------------------|-------------------------|
|
|  W                      +W
|----------------------|-------------------------|
|----------------------|-------------------------|
|----------------------|-------------------------|
|-10-------------------|-(10)--------------------|
|-10-------------------|-(10)--------------------|
|-10-------------------|-(10)--------------------|


  E  E E E  E  E E  E    E  E E  E  E  E E  E
|---------------------|-----------------------|
|----6p5----5p=3------|-------------6---------|
|-------------------7-|--5--x-5h=7-----7-5h=7-|
|---------------------|-----------------------|
|---------------------|-----------------------|
|---------------------|-----------------------|
|
| E  E E E  E  E E  E    E  E E  E  E  E E  E
|---------------------|-----------------------|
|---10p8--------------|------------10---------|
|----------12p10---10-|--9--x-9h10----10-9h10-|
|---------------------|-----------------------|
|---------------------|-----------------------|
|---------------------|-----------------------|
|
| W                     +W
|---------------------|-----------------------|
|---------------------|-----------------------|
|---------------------|-----------------------|
|-8-------------------|-(8)-------------------|
|-8-------------------|-(8)-------------------|
|-8-------------------|-(8)-------------------|


  E  E E E  E  E E  E   E E E  E S  E. S  E.
|---------------------|-----------------------||
|----6p5----5p=3------|----------6h=8--8h10\-o||
|-------------------7-|-5-x-5h=7--------------||
|---------------------|-----------------------||
|---------------------|----------------------o||
|---------------------|-----------------------||
|
| E  E E E  E  E E  E   E E E  E S  E. S  E.
|---------------------|-----------------------||
|---10p8--------------|----------8h10--8h10--o||
|----------12p10---10-|-9-x-9h10--------------||
|---------------------|-----------------------||
|---------------------|----------------------o||
|---------------------|-----------------------||
|
| W                     H        H
|---------------------|-----------------------||
|---------------------|----------------------o||
|---------------------|-----------------------||
|-5-------------------|-3--------2------------||
|-5-------------------|-3--------2-----------o||
|-5-------------------|-3--------2------------||


  E  E E E  E  E E  E    E  E E  E  E  E E  E
|---------------------|-----------------------|
|----6p5----5p=3------|-------------6---------|
|-------------------7-|--5--x-5h=7-----7-5h=7-|
|---------------------|-----------------------|
|---------------------|-----------------------|
|---------------------|-----------------------|
|
| E  E E E  E  E E  E    E  E E  E  E  E E  E
|---------------------|-----------------------|
|---10p8--------------|------------10---------|
|----------12p10---10-|--9--x-9h10----10-9h10-|
|---------------------|-----------------------|
|---------------------|-----------------------|
|---------------------|-----------------------|
|
| W                     +W
|---------------------|-----------------------|
|---------------------|-----------------------|
|---------------------|-----------------------|
|-0-------------------|-(0)-------------------|
|-0-------------------|-(0)-------------------|
|-0-------------------|-(0)-------------------|


   E  E E E  E  E E  E     E  E E  E  E  E E  E
|----------------------|------------------------|
|-----6p5----5p=3------|--------------6---------|
|--------------------7-|---5--x-5h=7-----7-5----|
|----------------------|----------------------7-|
|----------------------|------------------------|
|----------------------|------------------------|
|
|  E  E E E  E  E E  E     E  E E  E  E  E E  E
|----------------------|------------------------|
|----10p8--------------|-------------10---------|
|-----------12p10---10-|---9--x-9h10----10-9----|
|----------------------|---------------------10-|
|----------------------|------------------------|
|----------------------|------------------------|
|
|  W                      +W
|----------------------|------------------------|
|----------------------|------------------------|
|----------------------|------------------------|
|-10-------------------|-(10)-------------------|
|-10-------------------|-(10)-------------------|
|-10-------------------|-(10)-------------------|


  E  E E E  E  E E  E    E  E E  E  E  E E  E
|---------------------|-----------------------|
|----6p5----5p=3------|-------------6---------|
|-------------------7-|--5--x-5h=7-----7-5h=7-|
|---------------------|-----------------------|
|---------------------|-----------------------|
|---------------------|-----------------------|
|
| E  E E E  E  E E  E    E  E E  E  E  E E  E
|---------------------|-----------------------|
|---10p8--------------|------------10---------|
|----------12p10---10-|--9--x-9h10----10-9h10-|
|---------------------|-----------------------|
|---------------------|-----------------------|
|---------------------|-----------------------|
|
| W                     +W
|---------------------|-----------------------|
|---------------------|-----------------------|
|---------------------|-----------------------|
|-8-------------------|-(8)-------------------|
|-8-------------------|-(8)-------------------|
|-8-------------------|-(8)-------------------|


                                  |--3--|  |--3--|
  E  E E E  E  E E  E   E E E  E  E  E  E  E  E  E
|---------------------|------------------------------||
|----6p5----5p=3------|-----------6h=8p=6--8h10p=8---||
|-------------------7-|-5-x-5h=7---------------------||
|---------------------|------------------------------||
|---------------------|------------------------------||
|---------------------|------------------------------||
|
|                                 |--3--|  |--3--|
| E  E E E  E  E E  E   E E E  E  E  E  E  E  E  E
|---------------------|-------------------11h14p11---||
|---10p8--------------|----------10h11p10------------||
|----------12p10---10-|-9-x-9h10---------------------||
|---------------------|------------------------------||
|---------------------|------------------------------||
|---------------------|------------------------------||
|
| W                     H         H
|---------------------|------------------------------||
|---------------------|------------------------------||
|---------------------|------------------------------||
|-5-------------------|-3---------2------------------||
|-5-------------------|-3---------2------------------||
|-5-------------------|-3---------2------------------||


                 3/4
  E E Q  Q  E E   W
|---------------|------||
|---------------|------||
|---------------|------||
|-0-0-------0-0-|------||
|-0-0-------0-0-|------||
|-0-0-------0-0-|------||
|
| E E Q  Q  E E   W
|---------------|------||
|---------------|------||
|---------------|------||
|-0-0-------0-0-|------||
|-0-0-------0-0-|------||
|-0-0-------0-0-|------||


 4/4
  Wx7
|--------|
|--------|
|--------|
|--------|
|--------|
|--------|


 Chorus
  E E E E E E E E   +E  E E E E E E E
|-----------------|-------------------|
|-----------------|-------------------|
|---x-x-x-x-x-x-7-|-(7)-7-7-7-7-7-7-7-|
|---x-x-x-x-x-x-7-|-(7)-7-7-7-7-7-7-7-|
|---x-x-x-x-x-x-5-|-(5)-5-5-5-5-5-5-5-|
|-----------------|-------------------|
|
| Gtr II
| E E E E E E E E   +E  E E E E E E E
|-----------------|-------------------|
|-----------------|-------------------|
|---x-x-x-x-x-x---|-------------------|
|---x-x-x-x-x-x-0-|-(0)-0-0-0-0-0-0-0-|
|---x-x-x-x-x-x-0-|-(0)-0-0-0-0-0-0-0-|
|---------------0-|-(0)-0-0-0-0-0-0-0-|


  E E E E E E E E   +E  E E E E E E E   E E E E E E E E
|-----------------|-------------------|-----------------|
|-----------------|-------------------|-----------------|
|-7-7-7-7-7-7-7---|-------------------|-----------------|
|-7-7-7-7-7-7-7-7-|-(7)-7-7-7-7-7-7-7-|-7-7-7-7-7-7-7-8-|
|-5-5-5-5-5-5-5-7-|-(7)-7-7-7-7-7-7-7-|-7-7-7-7-7-7-7-8-|
|---------------7-|-(7)-7-7-7-7-7-7-7-|-7-7-7-7-7-7-7-8-|
|
| E E E E E E E E   +E  E E E E E E E   E E E E E E E E
|-----------------|-------------------|-----------------|
|-----------------|-------------------|-----------------|
|-----------------|-------------------|-----------------|
|-0-0-0-0-0-0-0-7-|-(7)-7-7-7-7-7-7-7-|-7-7-7-7-7-7-7-8-|
|-0-0-0-0-0-0-0-7-|-(7)-7-7-7-7-7-7-7-|-7-7-7-7-7-7-7-8-|
|-0-0-0-0-0-0-0-7-|-(7)-7-7-7-7-7-7-7-|-7-7-7-7-7-7-7-8-|


  +E  E E E E E E E   E E E E E E E  E
|-------------------|------------------|
|-------------------|------------------|
|-------------------|------------------|
|-(8)-8-8-8-8-8-8-8-|-8-8-8-8-8-8-8-10-|
|-(8)-8-8-8-8-8-8-8-|-8-8-8-8-8-8-8-10-|
|-(8)-8-8-8-8-8-8-8-|-8-8-8-8-8-8-8-10-|
|
| +E  E E E E E E E   E E E E E E E  E
|-------------------|------------------|
|-------------------|------------------|
|-------------------|------------------|
|-(8)-8-8-8-8-8-8-8-|-8-8-8-8-8-8-8-10-|
|-(8)-8-8-8-8-8-8-8-|-8-8-8-8-8-8-8-10-|
|-(8)-8-8-8-8-8-8-8-|-8-8-8-8-8-8-8-10-|


   +E   E  E  E  E  E  E  E    E  E  E  E E E E E
|---------------------------|---------------------|
|---------------------------|---------------------|
|---------------------------|-------------------7-|
|-(10)-10-10-10-10-10-10-10-|-10-10-10-10-x-x-x-7-|
|-(10)-10-10-10-10-10-10-10-|-10-10-10-10-x-x-x-5-|
|-(10)-10-10-10-10-10-10-10-|-10-10-10-10-x-x-x---|
|
|  +E   E  E  E  E  E  E  E    E  E  E  E E E E E
|---------------------------|---------------------|
|---------------------------|---------------------|
|---------------------------|---------------------|
|-(10)-10-10-10-10-10-10-10-|-10-10-10-10-x-x-x-0-|
|-(10)-10-10-10-10-10-10-10-|-10-10-10-10-x-x-x-0-|
|-(10)-10-10-10-10-10-10-10-|-10-10-10-10-x-x-x-0-|


  +E  E E E E E E E   E E E E E E E E   +E  E E E E E E E   E E E E E E E E
|-------------------|-----------------|-------------------|-----------------|
|-------------------|-----------------|-------------------|-----------------|
|-(7)-7-7-7-7-7-7-7-|-7-7-7-7-7-7-7---|-------------------|-----------------|
|-(7)-7-7-7-7-7-7-7-|-7-7-7-7-7-7-7-3-|-(3)-3-3-3-3-3-3-3-|-3-3-3-3-3-3-3-3-|
|-(5)-5-5-5-5-5-5-5-|-5-5-5-5-5-5-5-3-|-(3)-3-3-3-3-3-3-3-|-3-3-3-3-3-3-3-3-|
|-------------------|---------------3-|-(3)-3-3-3-3-3-3-3-|-3-3-3-3-3-3-3-3-|
|
| +E  E E E E E E E   E E E E E E E E   +E  E E E E E E E   E E E E E E E E
|-------------------|-----------------|-------------------|-----------------|
|-------------------|-----------------|-------------------|-----------------|
|-------------------|-----------------|-------------------|-----------------|
|-(0)-0-0-0-0-0-0-0-|-0-0-0-0-0-0-0-3-|-(3)-3-3-3-3-3-3-3-|-3-3-3-3-3-3-3-3-|
|-(0)-0-0-0-0-0-0-0-|-0-0-0-0-0-0-0-3-|-(3)-3-3-3-3-3-3-3-|-3-3-3-3-3-3-3-3-|
|-(0)-0-0-0-0-0-0-0-|-0-0-0-0-0-0-0-3-|-(3)-3-3-3-3-3-3-3-|-3-3-3-3-3-3-3-3-|


  PM|     PM|       PM|     PM|       PM|     PM|
  E E E E E E E E   E E E E E E E E   E E E E E E E E   E E E E E E E E
|-----------------|-----------------|-----------------|-----------------|
|-----------------|-----------------|-----------------|-----------------|
|-----------------|-----------------|-----------------|-----------------|
|-0-0-7p0-0-0-5p0-|-0-0-8p0-0-0-7p0-|-0-0-7p0-0-0-5p0-|-3p0-5p0-7p0-5p0-|
|-----------------|-----------------|-----------------|-----------------|
|-----------------|-----------------|-----------------|-----------------|
|
| PM------------------------------------------------|
| E E E E E E E E   E E E E E E E E   E E E E E E E E   E E E E E E E E
|-----------------|-----------------|-----------------|-----------------|
|-----------------|-----------------|-----------------|-----------------|
|-----------------|-----------------|-----------------|-----------------|
|-----------------|-----------------|-----------------|-----------------|
|-5-5-5-5-5-5-5-5-|-7-7-7-7-7-7-7-7-|-8-8-8-8-8-8-8-8-|-5p0-7p0-8p0-7p0-|
|-5-5-5-5-5-5-5-5-|-7-7-7-7-7-7-7-7-|-8-8-8-8-8-8-8-8-|-----------------|


  PM|     PM|       PM|     PM|       PM|     PM|
  E E E E E E E E   E E E E E E E E   E E E E E E E E
|-----------------|-----------------|-----------------|
|-----------------|-----------------|-----------------|
|-----------------|-----------------|-----------------|
|-0-0-7p0-0-0-5p0-|-0-0-8p0-0-0-7p0-|-0-0-7p0-0-0-5p0-|
|-----------------|-----------------|-----------------|
|-----------------|-----------------|-----------------|
|
| PM------------------------------------------------|
| E E E E E E E E   E E E E E E E E   E E E E E E E E
|-----------------|-----------------|-----------------|
|-----------------|-----------------|-----------------|
|-----------------|-----------------|-----------------|
|-----------------|-----------------|-----------------|
|-5-5-5-5-5-5-5-5-|-7-7-7-7-7-7-7-7-|-8-8-8-8-8-8-8-8-|
|-5-5-5-5-5-5-5-5-|-7-7-7-7-7-7-7-7-|-8-8-8-8-8-8-8-8-|


  E E E E E E E E   E E E E E E E E   E E E E E E E E   E E Q  H
|-----------------|-----------------|-----------------|-------------*|
|-----------------|-----------------|-----------------|-------------*|
|-----------------|-----------------|-----------------|-------------*|
|-3p0-5p0-7p0-5p0-|-3p0-5p0-7p0-5p0-|-3p0-5p0-7p0-5p0-|-0-0---------*|
|-----------------|-----------------|-----------------|-0-0---------*|
|-----------------|-----------------|-----------------|-0-0---------*|
|
| E E E E E E E E   E E E E E E E E   E E E E E E E E   E E Q  H
|-----------------|-----------------|-----------------|-------------*|
|-----------------|-----------------|-----------------|-------------*|
|-----------------|-----------------|-----------------|-------------*|
|-----------------|-----------------|-----------------|-0-0---------*|
|-5p0-7p0-8p0-7p0-|-5p0-7p0-8p0-7p0-|-5p0-7p0-8p0-7p0-|-0-0---------*|
|-----------------|-----------------|-----------------|-0-0---------*|



Duration Legend
---------------
W - whole; H - half; Q - quarter; E - 8th; S - 16th; T - 32nd; X - 64th; a - acciaccatura
+ - note tied to previous; . - note dotted; .. - note double dotted
Uncapitalized letters represent notes that are staccato (1/2 duration)
Irregular groupings are notated above the duration line
Duration letters will always appear directly above the note/fret number it represents the
duration for.  Duration letters with no fret number below them represent rests.  Multi-
bar rests are notated in the form Wxn, where n is the number of bars to rest for.  Low
melody durations appear below the staff

Tablature Legend
----------------
 h   - hammer-on
 p   - pull-off
 b   - bend
 pb  - pre-bend
 r   - bend release (if no number after the r, then release immediately)
 /\  - slide into or out of (from/to "nowhere")
 s   - legato slide
 S   - shift slide
 - natural harmonic
[n]  - artificial harmonic
n(n) - tapped harmonic
 ~   - vibrato
 tr  - trill
 T   - tap
 TP  - trem. picking
 PM  - palm muting
\n/  - tremolo bar dip; n = amount to dip
 \n  - tremolo bar down
 n/  - tremolo bar up
/n\  - tremolo bar inverted dip
 =   - hold bend; also acts as connecting device for hammers/pulls
 <> - volume swell (louder/softer)
 x   - on rhythm slash represents muted slash
 o   - on rhythm slash represents single note slash

Misc Legend
-----------
 |  - bar
||  - double bar
||o - repeat start
o|| - repeat end
*|  - double bar (ending)
 :  - bar (freetime)
 $  - Segno
 &  - Coda
Tempo markers -  = BPM(8/16=s8/s16), where s8 = swing 8ths, s16 = swing 16ths





Comments


Popular Scary Kids Scaring Kids tabs & chords
Holding On Bass Tabs
Notorious Thugs Bass Tabs
Star Crossed Bass Tabs
Watch Me Bleed 4 Chords
Degenerates Tabs
Faces Tabs
Holding On Tabs
Snake Devil 1 Tabs
What's Up Now Tabs
Goes Without Saying Ukulele


Song lyrics



↑ Back to top | Tablatures and chords are parodies/interpretations of the original songs. You may use it for private study, scholarship, research or language learning purposes only
© 2014 AZChords.com Contact us | Privacy policy | DMCA | Add/correct tabs | Request tabs | Top 50 tabs