» » »

Holding On Tabs (ver.3)

Artists:  A B C D E F G H I J K L M N O P Q R S T U V W X Y Z # 

Holding On Tabs (ver.3)

Scary Kids Scaring Kids
Rating:
3/5 (4 votes)

Hard to play? Try these video lessons and learn fast.
                (Intro)
Tuning: Drop Db

eb-------------------------------------------------|
Bb-------------------13-15-17p13-17p13-15p12-15p12-|
Gb----------------14-------------------------------|
Db-12-14-12----------------------------------------|
Ab----------15-12----------------------------------|
Db-------------------------------------------------|

eb-------------------------------------------------|
Bb-------------------13-15-17p13-17p13-20p15-20p15-|
Gb----------------14-------------------------------|
Db-12-14-12----------------------------------------|
Ab----------15-12----------------------------------|
Db-------------------------------------------------|

eb-------------------------------------------------|
Bb-------------------13-15-17p13-17p13-15p12-15p12-|
Gb----------------14-------------------------------|
Db-12-14-12----------------------------------------|
Ab----------15-12----------------------------------|
Db-------------------------------------------------|

eb------------------------------------------------|
Bb-------------------13-15-12-13-12---------------|
Gb----------------14----------------12-14---------|
Db-12-14-12---------------------------------------|
Ab----------15-12---------------------------------|
Db------------------------------------------------|

(Im still workin on the rest but this is a really cool part of the song to me so hope 
think it sounds right cause I learned it by ear)..
/PeAcE\!!
            
Hard to play? Try these video lessons and learn fast. | Correct




comments powered by Disqus
↑ Back to top | Tablatures and chords are parodies/interpretations of the original songs. You may use it for private study, scholarship, research or language learning purposes only