» » »

Holding On Tabs (ver.2)

Artists:  A B C D E F G H I J K L M N O P Q R S T U V W X Y Z # 

Holding On Tabs (ver.2)

Scary Kids Scaring Kids
Rating:
3/5 (2 votes)

Hard to play? Try these video lessons and learn fast.
                -------------------------------------------------------------------------------
                             Holding On – Scary Kids Scaring Kids
-------------------------------------------------------------------------------

Tuning: Standard

they may play it in drop d, but it works just fine in standard because they don't use the low d.

  this intro is the same notes as the others on the site, this is just where it is 
for me to play


 guitar 1
e|-----------------------------11-----11-------9------9------------------------|
B|-----------------7-9/12-------12-----12-----11----11-------------------------|
G|--6-8-6----------------------------------------------------------------------|
D|-----------9-6---------------------------------------------------------------|
A|-----------------------------------------------------------------------------|
E|-----------------------------------------------------------------------------|

e|-----------------------------11-----11-------14--11---14--11-----------------|
B|-----------------7-9/12-------12-----12--------------------------------------|
G|--6-8-6----------------------------------------------------------------------|
D|-----------9-6---------------------------------------------------------------|
A|-----------------------------------------------------------------------------|
E|-----------------------------------------------------------------------------|

e|-----------------------------11-----11-------9------9------------------------|
B|-----------------7-9/12-------12-----12-----11----11-------------------------|
G|--6-8-6----------------------------------------------------------------------|
D|-----------9-6---------------------------------------------------------------|
A|-----------------------------------------------------------------------------|
E|-----------------------------------------------------------------------------|

e|---------------------------------------------------------------------------|
B|-----------------7-9/12-11-12-11-------------------------------------------|
G|--6-8-6---------------------------------11--6-8-6--------------------------|
D|-----------9-6------------------------------------------6------------------|
A|---------------------------------------------------------------------------|
E|---------------------------------------------------------------------------|

  guitar 2 plays these chords, just figure out the strumming
e|--------------------------------------------------------------------------------|
B|--------------------------------------------------------------------------------|
G|---------------------------------------6----------------------------------------|
D|--6-----------9----------2----------6-------------------------------------------|
A|--6-----------9----------2----------4-------------------------------------------|
E|--4-----------7----------0----------4-------------------------------------------|

  on the last part of the intro guitar 2 plays a harmony that is really hard to figure 
but this seems to work. The note in () rings into the verse
e|--------------------------------9-11-9-----------6-7-6---------------------------|
B|--------------------7-9/12----------------12-----------7/-(9)--------------------|
G|---6-8-6-------------------------------------------------------------------------|
D|-------------9-6-----------------------------------------------------------------|
A|---------------------------------------------------------------------------------|
E|---------------------------------------------------------------------------------|

these are the chords for the verse
e|-------------------------------------------------------------------------------|
B|-------------------------------------------------------------------------------|
G|---------------------------6----------9----------------------------------------|
D|--6-----------9----------6----------9------------------------------------------|
A|--6-----------9----------4----------7------------------------------------------|
E|--4-----------7----------4-----------------------------------------------------|

  the keyboard part of the verse goes something like this. Just play around with these 
and  you should be able to figure it out.
e|--11-------------------14------------------14--11--------11--14--11----------------------------|
B|-------12---11-12--------12--11-12------------12-------------------11-12-----------------------|
G|-------------------------------------------------------------------------------------------13--|
D|-----------------------------------------------------------------------------------------------|
A|-----------------------------------------------------------------------------------------------|
E|-----------------------------------------------------------------------------------------------|

chorus chords. There is a lead part but it is too faint to make out.
e|-------------------------------------------------------------------------------|
B|-------------------------------------------------------------------------------|
G|-------------------------------------------------------------------------------|
D|--2-----6-----2-----9--8-------------------------------------------------------|
A|--2-----6-----2-----9--9-------------------------------------------------------|
E|--0-----4-----0-----7--6-------------------------------------------------------|


Bridge. This is just one of the 2 guitars, and I guarantee it's not 100%, but its the 
I could get. I'll keep working on it.
  p.m. .........................
e|--------------------------------------------------------------------------------|
B|--------------------------------------------------------------------------------|
G|---------8----6--------8-----8--------------------------------------------------|
D|--6-8-----6----6--9-----8------8/9----------------------------------------------| 3x
A|--------------------------------------------------------------------------------|
E|--------------------------------------------------------------------------------|

  p.m. .......................
e|---------------------------------------------------------------------------------|
B|------------------------------------7/9------------------------------------------|
G|---------8----6----6-------------------------------------------------------------|
D|--6-8-----6----6------9-8-6------------------------------------------------------|
A|---------------------------------------------------------------------------------|
E|---------------------------------------------------------------------------------|

   play that whole thing 4 times then it's back to the chorus. I only have an acoustic 
so I didn't bother with the solo at the end of the chorus. Sorry.


   The outro is the same chords as the intro.
  Again, I only tabbed out one of the guitars.

palm mute the chords
e|--------------------------------------------------------------------------------|
B|--------------------------------------------------------------------------------|
G|--------------------------------------------------------------------------------|
D|--6-6-6-6----9-8----6-6-6----4-6------4-6-4-------------------------------------|
A|--6-6-6-6-------------6-6-6-------------------------6---------------------------|
E|--4-4-4-4-------------4-4-4-----------------------------------------------------|

e|--------------------------------------------------------------------------------|
B|---------------------------------------------------7----------------------------|
G|------------------------------------------------8----6-8------------------------|
D|--9-9-9-9----9-8----9-9-9----4-6------------------------------------------------|
A|--9-9-9-9-------------9-9-9-----------------------------------------------------|
E|--7-7-7-7-------------7-7-7-----------------------------------------------------|

e|------------------------------------------------------------------------------|
B|------------------------------------------------------------------------------|
G|-------------------------------------------------6-8-6------------------------|
D|--2-2-2-2----9-8----6-6-6----4-6-----------------8----------------------------|
A|--2-2-2-2-------------6-6-6---------------------------------------------------|
E|--0-0-0-0-------------0-0-0---------------------------------------------------|

e|---------------------------------------------------------------------------------|
B|---------------------------------------------------------------------------------|
G|---------------------------------------------4-6-4-------------------------------|
D|--6-6-6-6----9-8----6-6-6----4-6-----------6-4-----------------------------------|
A|--4-4-4-4-------------4-4-4------------------------------------------------------|
E|---------------------------------------------------------------------------------|

once again, this tab is not 100%, but it is pretty accurate. And I couldn't figure out 
the harmonies but it is a good place to start for people who are trying to figure out the song.


| /  slide up
| \  slide down
| h  hammer-on
| p  pull-off
| ~  vibrato
| +  harmonic
| x  Mute note
=================================================================================
==
            
Hard to play? Try these video lessons and learn fast. | Correct




comments powered by Disqus
↑ Back to top | Tablatures and chords are parodies/interpretations of the original songs. You may use it for private study, scholarship, research or language learning purposes only