» » »

Scary Kids Scaring Kids, Holding On Tabs (ver.1)

Artists:  A B C D E F G H I J K L M N O P Q R S T U V W X Y Z # 

Holding On Tabs (ver.1)

Scary Kids Scaring Kids Tabs
 Rating:
3.4/5 (11 votes)
Holding On lessons Tabs too difficult? Try these video lessons and learn fast
                (Intro)
Holding On (Intro)
Scary Kids Scaring Kids
Tuning: Drop D

I'll finish it up as soon as possible; but this is all I had time for.

Guitar I:
|-----------2h4/7-11p0-11p0-9p0-9p0|
|-2h4p2p0--------------------------|
|---------1------------------------|
|----------------------------------|
|----------------------------------|
|----------------------------------|

|-----------2h4/7-11p0-11p0-14p0-14p0-|
|-2h4p2p0-----------------------------|
|---------1---------------------------|
|-------------------------------------|
|-------------------------------------|
|-------------------------------------|

|-----------2h4/7-11p0-11p0-9p0-9p0|
|-2h4p2p0--------------------------|
|---------1------------------------|
|----------------------------------|
|----------------------------------|
|----------------------------------|

|-----------2h4/7-6h7p6\2---------|
|-2h4p2p0-----------------2h4p2---|
|---------1---------------------1-|
|---------------------------------|
|---------------------------------|
|---------------------------------|



Guitar II:
Listen for strumming.
|----------------------------------|
|----------------------------------|
|----------------------------------|
|-6-6-6-6-6---6-6--6----6---6-6-6-6|
|-6-6-6-6-6---6-6--6----6---6-6-6-6|
|-6-6-6-6-6---6-6--6----6---6-6-6-6|

|-------------------------------------|
|-------------------------------------|
|-------------------------------------|
|-9-9-9-9-9-------------9-9--9--------|
|-9-9-9-9-9-------------9-9--9--------|
|-9-9-9-9-9-------------9-9--9--------|

|-----------------------------------|
|-----------------------------------|
|-----------------------------------|
|-2-2-2-2-2---2-2--2----2---2-2-2-2-|
|-2-2-2-2-2---2-2--2----2---2-2-2-2-|
|-2-2-2-2-2---2-2--2----2---2-2-2-2-|

|
|---------------------------------|
|---------------------------------|
|---------------------------------|
|-4-4-4-4-4-----------4-4-4-4-4-4-|
|-4-4-4-4-4-----------4-4-4-4-4-4-|
|-4-4-4-4-4-----------4-4-4-4-4-4-|
            
Submit corrections

comments powered by Disqus
↑ Back to top | Scary Kids Scaring Kids Tabs for Holding On. Lyrics for acoustic guitar and electric guitar. Tablatures and chords are parodies/interpretations of the original songs. You may use it for private study, scholarship, research or language learning purposes only