» » »

Goes Without Saying Tabs (ver.2)

Artists:  A B C D E F G H I J K L M N O P Q R S T U V W X Y Z # 

Goes Without Saying Tabs (ver.2)

Scary Kids Scaring Kids
Rating:
5/5 (5 votes)

Hard to play? Try these video lessons and learn fast.
                e|--------------------------------------------|
B|--------------------------------------------|
G|-----------------------------------------4--|
D|----------2------2------2--------------2----|
A|------3--------3------3------3-----3--------|
E|--0h5---5----5------5------5---5-4---4------|

e|--------------------------------------------|
B|--------------------------------------------|
G|-----------------------------------------2--|
D|----------0------0------0--------------0----|
A|------2--------2------2------2-----0--------|
E|--0h3---3----3------3------3---3-1---1------|

e|--------------------------------------------|
B|--------------------------------------------|
G|-----------------------------------------4--|
D|----------2------2------2--------------2----|
A|------3--------3------3------3-----3--------|
E|--0h5---5----5------5------5---5-4---4------|

e|--------------------------------------------|
B|--------------------------------------------|
G|-----------------------------------------2--|
D|----------0------0------0--------------0----|
A|------2--------2------2------2-----0--------|
E|--0h3---3----3------3------3---3-1---1------|

e|--------------------------------------------|
B|--------------------------------------------|
G|-----------------------------------------4--|
D|----------2------2------2--------------2----|
A|------3--------3------3------3-----3--------|
E|--0h5---5----5------5------5---5-4---4------|

e|--------------------------------------------|
B|--------------------------------------------|
G|-----------------------------------------2--|
D|----------0------0------0--------------0----|
A|------2--------2------2------2-----0--------|
E|--0h3---3----3------3------3---3-1---1------|

listen for strum pattern
e|--------------------------------------------|
B|--------------------------------------------|
G|--7----2----5----4--------------------------|
D|--7----2----5----5--------------------------|
A|--5----0----3----2--------------------------|
E|--------------------------------------------|

e|--------------------------------------------|
B|--------------------------------------------|
G|--7----2----5----4--------------------------|
D|--7----2----5----5--------------------------|
A|--5----0----3----2--------------------------|
E|--------------------------------------------|

e|--------------------------------------------|
B|--------------------------------------------|
G|--7----2------------------------------------|
D|--7----2------------------------------------|
A|--5----0------------------------------------|
E|--------------------------------------------|

e|--------------------------------------------|
B|--------------------------------------------|
G|-----------------------------------------4--|
D|----------2------2------2--------------2----|
A|------3--------3------3------3-----3--------|
E|--0h5---5----5------5------5---5-4---4------|

e|--------------------------------------------|
B|--------------------------------------------|
G|-----------------------------------------2--|
D|----------0------0------0--------------0----|
A|------2--------2------2------2-----0--------|
E|--0h3---3----3------3------3---3-1---1------|

e|--------------------------------------------|
B|--------------------------------------------|
G|-----------------------------------------4--|
D|----------2------2------2--------------2----|
A|------3--------3------3------3-----3--------|
E|--0h5---5----5------5------5---5-4---4------|

e|--------------------------------------------|
B|--------------------------------------------|
G|-----------------------------------------2--|
D|----------0------0------0--------------0----|
A|------2--------2------2------2-----0--------|
E|--0h3---3----3------3------3---3-1---1------|

e|--------------------------------------------|
B|--------------------------------------------|
G|--7----2----5----4--------------------------|
D|--7----2----5----5--------------------------|
A|--5----0----3----2--------------------------|
E|--------------------------------------------|

e|--------------------------------------------|
B|--------------------------------------------|
G|--7----2----5----4--------------------------|
D|--7----2----5----5--------------------------|
A|--5----0----3----2--------------------------|
E|--------------------------------------------|

e|--------------------------------------------|
B|--------------------------------------------|
G|--7----2------------------------------------|
D|--7----2------------------------------------|
A|--5----0------------------------------------|
E|--------------------------------------------|
piano part
            
Hard to play? Try these video lessons and learn fast. | Correct




comments powered by Disqus
↑ Back to top | Tablatures and chords are parodies/interpretations of the original songs. You may use it for private study, scholarship, research or language learning purposes only