» » »

Scary Kids Scaring Kids, Goes Without Saying Chords (ver.2)

Artists:  A B C D E F G H I J K L M N O P Q R S T U V W X Y Z # 

Goes Without Saying Chords (ver.2)

Scary Kids Scaring Kids Tabs
 Rating:
4.5/5 (8 votes)
Goes Without Saying lessons Tabs too difficult? Try these video lessons and learn fast
1
                UPDATE: APRIL 8, electric

Intro thanks to "Fradiation"

INTRO/VERSE: (repeats)

tuning = standard

e|--------------------------------------------|
B|--------------------------------------------|
G|-----------------------------------------4--|
D|----------2------2------2--------------2----|
A|------3--------3------3------3-----3--------|
E|--0-5---5----5------5------5---5-4---4------|

then he rests a little bit

e|--------------------------------------------|
B|--------------------------------------------|
G|-----------------------------------------2--|
D|----------0------0------0--------------0----|
A|------2--------2------2------2-----0--------|
E|--0-3---3----3------3------3---3-1---1------|

We both know you want to come and get it what you waiting for?
Now you're scared of what you've see and only seen it in your dreams before
Cause when you least expect it, it will take you, take you by surprise
So take advantage, take it all, take it all before the moment dies

CHORUS: (Acoustic)

Chords used:

...Dm....Am....C...Em
e|--1----0-----0----0---|
B|--3----1-----1----0---|
G|--2----2-----0----0---|
D|--0----2-----2----2---|
A|-------0-----3----2---|
E|------------------0---|

Dm...................Am
 Well it come without saying,

 ............C
 It's already known

...............Em
 It's written all over you


Dm................Am
 It comes without saying,

...........C
 Don't let it go,

...........Em
 keep it inside of you

Dm...............Am
 It comes without saying..

VERSE: (same as previous verse)
Now that you've got it and it's slipping through your finger tips
Well you gave and let go, now it's missing from your life again
So now you're tearing up the walls making a mess trying to dig it up
Now it's all too late you'll never find it, and the moments dead
The moments dead

Dm...............Am
 It goes without saying,

............C
 It's already gone

...............Em
 It's written all over you

Dm...............Am
 It goes without saying,

..........C
 You let it go,

................Em
 There's nothing inside of you

Dm...............Am
 It goes without saying..


PIANO INTERLUDE:

You know you want it what are you waiting for?
Take it all when the moment dies

CHORUS: (Electric guitar) Repeat as neccessary

e|--------------------------------------------------|
B|--------------------------------------------------|
G|--9-------7------12---------9-------12-----7------|
D|--x-(x12)-x-(x6)-x-(x6)-----x-(x12)-x-(x6)-x-(x6)-|
A|--7-------5------10---------7-------10-----5------|
E|--------------------------------------------------|

e|--------------------------------------------------|
B|--------------------------------------------------|
G|--9-------7------12---------9-------17-----16-----|
D|--x-(x12)-x-(x6)-x-(x6)-----x-(x12)-x-(x6)-x-(x6)-|
A|--7-------5------10---------7-------15-----14-----|
E|--------------------------------------------------|

It goes without saying,
It goes without saying
It's written all over you

It goes without saying
It goes without saying
Just keep it inside of you

It goes without saying,
It goes without saying
It's written all over you

It goes without saying,
It goes without saying
There's nothing inside of you

It goes without saying...


I havent yet attempted to find the electric chorus, let alone the piano conversion to 
I might attempt it later.
            
Submit corrections

comments powered by Disqus
↑ Back to top | Scary Kids Scaring Kids Chords for Goes Without Saying. Lyrics for acoustic guitar and electric guitar. 1 Tablatures and chords are parodies/interpretations of the original songs. You may use it for private study, scholarship, research or language learning purposes only