» » »

Scary Kids Scaring Kids, Goes Without Saying Chords (ver.1)

Artists:  A B C D E F G H I J K L M N O P Q R S T U V W X Y Z # 

Goes Without Saying Chords (ver.1)

Scary Kids Scaring Kids Tabs
 Rating:
4.3/5 (6 votes)
Goes Without Saying lessons Tabs too difficult? Try these video lessons and learn fast
1
                
Simple yet great song. I found myself wanting to play it, so I tabbed it myself.
It sounds right to me.


INTRO

e|-----------------------------------------------|
B|-----------------------------------------------|
G|---------------------------------------------4-|
D|-----------2--------2------2----------------2--|
A|-----0-3-0-----0-3----0-3----0-3-0----3--------|
E|--0----------------------------------4-4-------|
Small rest here…
e|-----------------------------------------------|
B|-----------------------------------------------|
G|-----------------------------------------2-----|
D|----------0-----0------0----------------3------|
A|-------2-------2------2------2-----0-----------|
E|--0---3-3-----3------3------3---3-1-1----------|

Then repeat a couple times

Play intro with VERSE ONE:

We both know you want it, come and get it,
What you waiting for?
Now you’re scared of what your seeing,
Only seen it in your dreams before.
‘Cause when you least expect it,
It will take you, take you by surprise.
So take advantage, take it all, 
Take it all before the moment dies.

CHORUS:
Dm                        F
   It goes without saying, it’s already known
Am
   It’s written all over you.
Dm                        F 
   It goes without saying, don’t let it go
Am                  G
   Just keep it inside of you.
Dm                  F (ring out)
   It goes without saying…


Play intro with VERSE TWO:

Now that you’ve got it in,
It’s slipping through your fingertips.
You gave and let go;
Now it’s missing from your life again.
So now you’re tearing up the walls,
Make a mess, try to dig it up.
Well now it’s all too late, you’ll never find it
And the moment’s dead, the moment’s dead.


CHORUS
Dm                        F
   It goes without saying, it's already gone.
Am
   It's written all over you.
Dm                        F
   It goes without saying, you let it go, 
Am                    G
   There's nothing inside of you.
Dm                    F (ring out)
   It goes without saying...


Instrumental part (just play these chords in order, fill it in)

Dm, F, Am, Am, Dm, F, Am, G, Dm, F, Am

We know you want it, 
What are you waiting for?
Take it all and the moment dies.


OUTRO (repeat the entire part)

Dm, F, Am, G

Dm                Am (ring out)
  It goes without saying…
            
Submit corrections

comments powered by Disqus
↑ Back to top | Scary Kids Scaring Kids Chords for Goes Without Saying. Lyrics for acoustic guitar and electric guitar. 1 Tablatures and chords are parodies/interpretations of the original songs. You may use it for private study, scholarship, research or language learning purposes only