>
 >
Warm Tape 2

Warm Tape 2 Bass Tabs

Red Hot Chili Peppers - Warm Tape 2 chords, tabs, tablatures, lyrics

Guitar lessons | Add/correct | Request | Top 50 tabs Artists:  A B C D E F G H I J K L M N O P Q R S T U V W X Y Z 0-9

Warm Tape 2 Bass Tabs – Red Hot Chili Peppers

CD, Sheet music, Poster

Do you like Warm Tape 2? Share with your friends now
Bass Tabs
Intro
G|----8-----8-|------10-----9-|
D|------------|---------------|
A|--------6---|-6---------7---|
E|-7----7-----|---9-----9-----|

Verse
G|------8-----8-|------10-----9-|
D|--------------|---------------|
A|-7--------6---|-6---------7---|
E|---7----7-----|---9-----9-----|

Chorus 1 
G|-------------------|-4-4-4-----------|----8--8-6-|-4-6-4--------|
D|-6--6-6--6-6-6-|--------2-2-2-2-|-6-----------|-------2-2-2--|
A|-------------------|-------------------|-------------|-----------------|
E|-------------------|-------------------|-------------|----------------|

G|-------------------|-4-------------|-----------|--------------|
D|-6--6-6--6-6-6-|---4--2-2-2--|-4--4--4-|-4-4--2--2--|
A|-------------------|----------------|------4---|---4-4--------|
E|-------------------|----------------|-----------|--------------|

G|-------------------|-4-4-4-----------|-------------------|-4-6-4--------|
D|-6--6-6--6-6-6-|--------2-2-2-2-|--6--6-6--6-6-6-|-------2-2-2--|
A|-------------------|-------------------|--------------------|-----------------|
E|-------------------|-------------------|--------------------|----------------|

G|-------------------|-4-------------|-----------|--------------|
D|-6--6-6--6-6-6-|---4--2-2-2--|-4--4--4-|-4-4--2--2--|
A|-------------------|----------------|------4---|---4-4--------|
E|-------------------|----------------|-----------|--------------|

Chorus 2 
G|---------------|-4-4-4-1---------|----8--11-8-|-4------------|
D|-6--6-6--6-6-6-|---------2-2-2-2-|-6----------|----4--2-2-2--|
A|---------------|-----------------|------------|--------------|
E|---------------|-----------------|------------|--------------|

G|---------------|-4-4-4-------|------6--|--6--------|
D|-6--6-6--6-6-6-|-------2--2--|-4--4--4-|-4-4-2--2--|
A|---------------|-------------|---------|----4------|
E|---------------|-------------|---------|-----------|

G|---------------|-4-4-4--------|----8--8-6-|-4h6----------|
D|-6--6-6--6-6-6-|--------2--2--|-6---------|-----4--2h4p2-|
A|---------------|--------------|-----------|--------------|
E|---------------|--------------|-----------|--------------|

G|--------------|-----4----------|---------|------------|
D|6--6----------|-4h6---4-2-2-2--|-4--4--4-|---4--2-2-2-|
A|-----6--6-6-6-|----------------|------4--|--4-4-------|
E|--------------|----------------|---------|------------|

Interlude part 1
G|---------------| 
D|---------------|(x2)
A|---------------|
E|-9--9-9-9--9-9-|

G|----------------|----------------|
D|---6-9----------|-6-4------------|
A|-7--------------|-----6----------|
E|-------7--7-7-7-|-------7--7-7-7-|

Bridge part 2
G|---------------|
D|---------------|(x2)
A|---------------|
E|-9--9-9-9--9-9-|

G|----------------|-13-11-----------------|
D|---6-9----------|-------13--------------|
A|-7--------------|----------14--14-14-14-|
E|-------7--7-7-7-|-----------------------|

G|---------------|
D|---------------|
A|---------------|
E|-9--9-9-9--9-9-|

G|----------------|-13-11-----------------|
D|---6-9----------|-------13--------------|
A|-7--------------|----------14--14-14-14-|
E|-------7--7-7-7-|-----------------------|

G--13-11-----------------|
D--------13--------------| (x2)
A|---------14--14-14-14-|
E|-----------------------|

Outro 
G|-----8-----8-|------10------16-|-----------|
D|--------------|-----------------|-----------| 
A|-7--------6----|-6---------------|-----------|
E|---7----7------|---9-----9-12----|-11--7-----|

And the order is : 
Intro
Verse (x11)
Chorus 1
Intro
Verse (x9)
Chorus 2
Bridge part 1 (x2)
Bridge part 2
Intro
Verse (x9)
Outro





Comments


Popular Red Hot Chili Peppers tabs & chords
Apache Rose Peacock Bass Tabs
Californication Bass Tabs
Boyz N The Hood Tabs
Californication 1 Tabs
Californication Solo Live In Rio De Janero Tabs
Decretacion Smile Tabs
Magic Johnson 1 Tabs
My Friends Tabs
Police Helicopter Tabs
Time 1 Tabs


Song lyrics



↑ Back to top | Tablatures and chords are parodies/interpretations of the original songs. You may use it for private study, scholarship, research or language learning purposes only
© 2014 AZChords.com Contact us | Privacy policy | DMCA | Add/correct tabs | Request tabs | Top 50 tabs