» » »

Warm Tape Tabs (ver.2)

Artists:  A B C D E F G H I J K L M N O P Q R S T U V W X Y Z # 

Warm Tape Tabs (ver.2)

Red Hot Chili Peppers
Rating:
0/5 (0 votes)

Hard to play? Try these video lessons and learn fast.
                (Intro)
This submission is 100% correct just like all of the rest of mine. Ill
post the rest of the song later, when I figure it out.
Davy S.


INTRO
----------------------------------------------11------------------12--
--------------------------13--------11------------------13------------
----------13-----11---------------------------------------------------
-14-------------------------------------------------------------------


11--------------------------------------------------------------------
---------11-----------------------------------------------------------
-------------------13--------11---------------------------------------
---------------------------------------13--------11-------------------
-----------------------------------------------------------11-------11
            
Hard to play? Try these video lessons and learn fast. | Correct




comments powered by Disqus
↑ Back to top | Tablatures and chords are parodies/interpretations of the original songs. You may use it for private study, scholarship, research or language learning purposes only