» » »

Red Hot Chili Peppers, Venice Queen Tabs (ver.3)

Artists:  A B C D E F G H I J K L M N O P Q R S T U V W X Y Z # 

Venice Queen Tabs (ver.3)

Red Hot Chili Peppers Tabs
Rating:
0/5 (0 votes)
Venice Queen lessons Tabs too difficult? Try these video lessons and learn fast
                This is for the first part only, but I assure you that it is correct.  (sorry for the unevenness of this tab, 
I'm still getting used to this)

|-------------------------------------------------------------|
|-------12---------12--------12---------------------------|  
|-----9--------9-------------9-------9---------12-11-----|   
|---9-------------9--------9------------9------------------|         x3
|-------------------------------------------------------------|
|-------------------------------------------------------------|


|--------------------------------------------------------------|
|-------12---------12--------12---------12----------12---|  
|-----9--------9-------------9-------9------------9---------|   
|---9-------------9--------9------------9-------9-----------| 
|--------------------------------------------------------------|
|--------------------------------------------------------------|



|-0--0---0-0---0--0---0-0----0-0-0-0-|-0--0---0-3---0--0---0-3----3-3-3-3-|
|-0--3---0-0---0--3---0-0----0-0-0-0-|-0--3---0-3---0--3---0-3----3-3-3-3-|
|-0--0---0-0---0--0---0-0----0-0-0-0-|-0--0---0-0---0--0---0-0----0-0-0-0-|
|-2--2---2-2---2--2---2-2----2-2-2-2-|-2--2---2-2---2--2---2-2----2-2-2-2-|
|-3--3---3-3---3--3---3-3----3-3-3-3-|-0--0---0-0---0--0---0-0----0-0-0-0-|
|------------------------------------|------------------------------------|
            
Submit corrections

comments powered by Disqus
↑ Back to top | Red Hot Chili Peppers Tabs for Venice Queen. Lyrics for acoustic guitar and electric guitar. Tablatures and chords are parodies/interpretations of the original songs. You may use it for private study, scholarship, research or language learning purposes only