» » »

Red Hot Chili Peppers, Venice Queen Tabs (ver.2)

Artists:  A B C D E F G H I J K L M N O P Q R S T U V W X Y Z # 

Venice Queen Tabs (ver.2)

Red Hot Chili Peppers Tabs
 Rating:
4/5 (4 votes)
Venice Queen lessons Tabs too difficult? Try these video lessons and learn fast
1
                Venice Queen

INTRO
e|--------------------------------------------
B|-------12-------12-------12-------12--------
G|----9--------9--------9--------9-----12-11--
D|-9--------9--------9--------9---------------x3
A|--------------------------------------------
E|--------------------------------------------

INTRO INTERLUDE - #Where You Come From? Where You Going?#
e|--0---0-0-0-0-0-0--0---0-0-0-0-0-0-
B|--0h3-3-0-0-3-0-0--0h3-3-0-0-3-0-0-
G|--0---0-0-0-0-0-0--0---0-0-0-0-0-0-
D|--2---2-2-2-2-2-2--2---2-2-2-2-2-2-
A|--3---3-3-3-3-3-3--0---0-0-0-0-0-0-
E|-----------------------------------

INTRO ENDING 1
e|----------------------------------------------
B|-------12-------12-------12-------12-------12-
G|----9--------9--------9--------9--------9-----
D|-9--------9--------9--------9--------9--------
A|----------------------------------------------
E|----------------------------------------------

INTRO ENDING 2
e|-------------------------------------10h12p10----
B|-------12-------12-------12-------12----------12-
G|----9--------9--------9--------9-----------------
D|-9--------9--------9--------9--------------------
A|-------------------------------------------------
E|-------------------------------------------------

BACKGROUND - WITH VIOLIN EFFECT
e|--12~~~~~-12~~~~~---19~~~~~--12~~~~~----------0~~~~~---14b15r14-12~~~~
B|-------------------------------------12~~~~~~-------------------------
G|----------------------------------------------------------------------
D|----------------------------------------------------------------------
A|----------------------------------------------------------------------
E|----------------------------------------------------------------------

VERSES - SLOW
e|--------------------------------------------
B|-------12-------12-------12-------12--------
G|----9--------9--------9--------9-----12-11--
D|-9--------9--------9--------9---------------x3
A|--------------------------------------------
E|--------------------------------------------

e|--0---0-0-0-0-0-0--0---0-0-0-0-0-0-
B|--0h3-3-0-0-3-0-0--0h3-3-0-0-3-0-0-
G|--0---0-0-0-0-0-0--0---0-0-0-0-0-0-
D|--2---2-2-2-2-2-2--2---2-2-2-2-2-2-
A|--3---3-3-3-3-3-3--0---0-0-0-0-0-0-
E|-----------------------------------

e|-------------------------------------10h12p10----
B|-------12-------12-------12-------12----------12-
G|----9--------9--------9--------9-----------------
D|-9--------9--------9--------9--------------------
A|-------------------------------------------------
E|-------------------------------------------------

e|----------------------------------------------
B|-------12-------12-------12-------12-------12-
G|----9--------9--------9--------9--------9-----
D|-9--------9--------9--------9--------9--------
A|----------------------------------------------
E|----------------------------------------------

VERSES - FAST - #We All want to tell her, tell her that we love her...#
e|-0-0-0-0--0-0-0--0-0--
B|-0-0-0-0--0-0-0--3-3--
G|-0-0-0-0--0-0-0--4-4--
D|-2-2-2-2--2-2-2--2-2--x3
A|-2-2-2-2--2-2-3--3-3--
E|-0-0-0-0--0-0-0--0-0--

                       Faster
e|--0-0-0-0-0-0--3-3-3-3333-
B|--3-3-3-3-3-3--2-2-2-2222-
G|--0-0-0-0-0-0--3-3-3-3333-
D|--2-2-2-2-2-2--0-0-0-0000-
A|--0-0-0-0-0-0--0-0-0-0000-
E|--------------------------

VERSES - ALT FAST - fast strumming required, upstrokes pattern - #.... G.l.o.r.i.a....#
e|-0-0-0-0-0-0-0-0-0-0-0-0-0-0--3-3-3-3-3-3-3-3-3-3-3-3-3-
B|-2-2-2-2-2-2-2-2-2-2-2-2-2-2--3-3-3-3-3-3-3-3-3-3-3-3-3-
G|-2-2-2-2-2-2-2-2-2-2-2-2-2-2--0-0-0-0-0-0-0-0-0-0-0-0-0-
D|-2-2-2-2-2-2-2-2-2-2-2-2-2-2--0-0-0-0-0-0-0-0-0-0-0-0-0-
A|-0-0-0-0-0-0-0-0-0-0-0-0-0-0--2-2-2-2-2-2-2-2-2-2-2-2-2-
E|------------------------------3-3-3-3-3-3-3-3-3-3-3-3-3-

e|-0-0-0-0-0-0-0-0-0-0-0-0-0-0----------------------------
B|-1-1-1-1-1-1-1-1-1-1-1-1-1-1--7-7-7-7-7-7-7-7-7-7-7-7-7-
G|-2-2-2-2-2-2-2-2-2-2-2-2-2-2--7-7-7-7-7-7-7-7-7-7-7-7-7-
D|-3-3-3-3-3-3-3-3-3-3-3-3-3-3--7-7-7-7-7-7-7-7-7-7-7-7-7-
A|-3-3-3-3-3-3-3-3-3-3-3-3-3-3--5-5-5-5-5-5-5-5-5-5-5-5-5-
E|--------------------------------------------------------

On last repeat of this verse pattern play this once as the last chord
e|-0~~
B|-2~~
G|-3~~
D|-0~~
A|-0~~
E|----
            
Submit corrections

comments powered by Disqus
↑ Back to top | Red Hot Chili Peppers Tabs for Venice Queen. Lyrics for acoustic guitar and electric guitar. 1 Tablatures and chords are parodies/interpretations of the original songs. You may use it for private study, scholarship, research or language learning purposes only