» » »

The Power Of Equality Bass tabs (ver.2)

Artists:  A B C D E F G H I J K L M N O P Q R S T U V W X Y Z # 

The Power Of Equality Bass tabs (ver.2)

Red Hot Chili Peppers
Rating:
0/5 (0 votes)

Hard to play? Try these video lessons and learn fast.
                (2)
Main verse bass figure:
G-|---------|--------------------|------------------------|
D-|---------|--------------------|------------------------|
A-|-9-8--7/-|-------6-6------5-6-|---------5-6-6--9-8--7/-|
E-|---------|-0-5/7--------0-----|-0-5/7-0-------0--------|

G-|-------------------------|---------------|
D-|-------------------------|---------------|
A-|------6-----4-6----5-6-4-|------6---4-6--|
E-|-5/7------0-------0------|-5/7----0------|
Reapet bass figure throughout the verses, interludes and guitar solo 

Chorus:
G-|--------6-6---9--------|-----x---------|------6-6---9--------|
D-|-----------------------|---------------|---------------------|
A-|-3/444-4-4--7--7-------|----x--2-2-3-3-|-3/4-4-4--7--7-------|
E-|-----------------x-5-4-|-3-------------|---------------x-5-4-|
    T T TPTP TPTP T T T T    TP T T T T   T T TPTP TPTP T T T T 

G-|--------6-6---9---------|----x-------|
D-|------------------------|------------|
A-|-3/444-4-4--7--7--------|--x---2--3--|
E-|-----------------x-5-4--|------------|
    T TTT TPTP TPTP T T T     T P T  T

Last time in chorus:
G-|--------6-6---9--------|------------|
D-|-----------------------|------------|
A-|-3/444-4-4--7--7-------|------------|
E-|-----------------x-5-4-|-3----3/17\-|
Note: 2nd bar first and third times only

Bridge: (Auto-wah)
G-|-----7-x--5-x--7----|-----7-x--4-x--7-----|
D-|---------3----5-----|---------3----5------|
A-|-5--5-------------3-|-5--5-------------3--|
E-|--------------------|---------------------|
    T  TP P TP P TP  T   T  TP P TP P TP  T

Outro:
G-|------ 8--8-------8--8-------8-|-------8--8-------8--8-------8-|
D-|-6/8--------6/8--------4/6-6---|-6/8--------6/8--------4/6-6---|
A-|-----6--6-------6--6-----------|-----6--6-------6--6-----------|
E-|-------------------------------|-------------------------------|
     T T T PT P T T T PT P T T T P   T T T PT P T T T PT P T T T P       

G-|-------8--8-------8--8-------8-|-------8--8-------8--8--------8--|
D-|-----------------------4/6-6---|-----------------------4/6-------|
A-|-4/6-6--6---4/6-6--6-----------|-4/6-6--6---4/6-6--6-------------|
E-|-------------------------------|----------------------------7----|
    T T T PT P T T T PT P T T T P   T T T PT P T T T PT P T T  T T

Last two bars:
G-|-------8--8-------8--8-------8-|-------8--8---------------|
D-|-----------------------4/6-6---|--------------------------|
A-|-4/6-6--6---4/6-6--6-----------|-4/6-6--6---4/6--9-8--7/--|
E-|-------------------------------|--------------------------|
    T T T PT P T T T PT P T T T P   T T T PT P T T  T T  T
            
Hard to play? Try these video lessons and learn fast. | Correct




comments powered by Disqus
↑ Back to top | Tablatures and chords are parodies/interpretations of the original songs. You may use it for private study, scholarship, research or language learning purposes only