» » »

Red Hot Chili Peppers, The Power Of Equality Bass tabs (ver.1)

Artists:  A B C D E F G H I J K L M N O P Q R S T U V W X Y Z # 

The Power Of Equality Bass tabs (ver.1)

Red Hot Chili Peppers Tabs
 Rating:
4/5 (4 votes)
The Power Of Equality  lessons Tabs too difficult? Try these video lessons and learn fast
                (1)
Tune E half step down. E= D# or Eb

 Verse:
G -------------------------------------------------------------------------------
D -------------------------------------------------------------------------------
A --9-8-7/-----------6-6-5h6----------6-6-5h6---9-8-7/----------6---5h6-6-5-6-4--
E -----------0--5/7-----------0--5/7--------------------0--5/7----0--------------

G ----------------------------|
D ----------------------------|
A ----------6---5h6--9-8-7/---|
E --0--5/7----0---------------|

 Verse Before Chorus:
G ----------------------------------------|
D ----------------------------------------|
A ...-6-6-5h6-6-5-6-4---------------------|
E ----------------------6-6-6-6-6-6-6-6---|
                        S S S S S S S S
 Chorus:                           
G -----6---6---6-------9-----------|--------|In this enclosed part Flea does lots of
D ---------------------------------|--------|variations but they are easy to figure out.
A -4-4---4---4----4/7--------------|2-2--3-3|Mainly he just uses octaves and fifths.
E ------------------------6--5--3--|--------|GL!
   S S P S P S P  S    P  S  S  S   S S  S S 
 
Chorus before Verse:
G --------------------|
D --------------------|
A --------------------|
E ...6--5--3-----3/15\|

 Interlude: (Wah or Auto Wah, I prefer Wah)
        (1x)                   (7x)
G -----7------5------7|------7------5------7|
D --------3-3----5-5--|---------3-3----5-5--|
A -5-5----------------|-55-5----------------|
E --------------------|---------------------|
   S S P  S S P  S S P  SS S P  S S P  S S P

 Guitar Solo:
G ----------------------------------------------------------------------
D ----------------------------------------------------------------------
A ----------6-6-5h6----------6-6-5h6---9-8-7/----------6-6-5h6-6-5-6-4--
E --0--5/7-----------0--5/7--------------------0--5/7-------------------

G ------------------|
D ------------------|
A ----------6-6-5h6-|
E --0--5/7----------|

 Outro:          (10x)
G --------8---8--------8---8------8--|| --------|
D ----------------------------4/6----||---------|
A --4/6-6---6----4/6-6---6-----------||--9-8-7/-|
E -----------------------------------||---------|
            
Submit corrections

comments powered by Disqus
↑ Back to top | Red Hot Chili Peppers Bass for The Power Of Equality. Lyrics for acoustic guitar and electric guitar. Tablatures and chords are parodies/interpretations of the original songs. You may use it for private study, scholarship, research or language learning purposes only