» » »

Brothers Cup Bass tabs (ver.3)

Artists:  A B C D E F G H I J K L M N O P Q R S T U V W X Y Z # 

Brothers Cup Bass tabs (ver.3)

Red Hot Chili Peppers
Rating:
0/5 (0 votes)

Hard to play? Try these video lessons and learn fast.
                Dropped D Tuning 4-String (DADG)
Main Riff
G------------------------|---------------------------|
D------------------------|-------------------8--8-5--|
A-----5--3--2--3-3-0---5-|--5--3-2-------------------|
D------------------------|---------------------------|

G------------------------|---------------------------|
D----------------------3-|--------5-3-6-5-3----------|
A-----5--3--2--3-3-0-----|------------------5--------|
D------------------------|---------------------------|

Chorus
G------------------------|---------------------------|
D------------------------|---------------------------|
A---5---3---1------------|-5--3--1--3-3-1------------|
D--------------5---3---5-|---------------------------|

Bridge
G------------------------|---------------------------|
D------------------------|---------------------------|
A------------------------|---------------------------|
D---0---0-0-0-0--0-0-----|---0---0-0-0-0--0-0--------|
    S   S S S S  S S         S   S S S S  S S
            
Hard to play? Try these video lessons and learn fast. | Correct




comments powered by Disqus
↑ Back to top | Tablatures and chords are parodies/interpretations of the original songs. You may use it for private study, scholarship, research or language learning purposes only