» » »

Red Hot Chili Peppers, Brothers Cup Tabs (ver.1)

Artists:  A B C D E F G H I J K L M N O P Q R S T U V W X Y Z # 

Brothers Cup Tabs (ver.1)

Red Hot Chili Peppers Tabs
 Rating:
4/5 (4 votes)
Brothers Cup lessons Tabs too difficult? Try these video lessons and learn fast
                THis is the first tab for this song (and im suprised, its a really cool song!) so i hope u like it, please rate it if u view it too. Enjoy. 

Verse:
E-|-------------------------------------------------|
B-|----7--5-----------------------------------------|
G-|----7--5---------5--x--x--x--x--7--5-------------|
D-|---------------------------------------8-8--5----|
A-|------------5-5----------------------------------|
E-|-------------------------------------------------|

E-|-------------------------------------------------------|
B-|----7--5-----------------------------------------------|
G-|----7--5----------5--x--x--x--x--5-5----5-5------------|
D-|-------------------------------------------------------|
A-|-------------5-5------------------------------*-7-/----|
E-|-------------------------------------------------------|

* means...play sometimes, not every time.

Chorus:

E-|--------------------|-----------------------|--------------------|
B-|--------------------|-----------------------|--------------------|
G-|--------------------|-----------------------|--------------------|
D-|--------------------|-----------------------|--------------------|
A-|--5--3--1-----------|--5--3--1---3-3--1-----|--5--3--1-----------|
E-|-----------3--1--3--|--------------------3--|-----------3--1--3--|

E-|--------------------------|
B-|--------------------------|
G-|--------------------------|
D-|--------------------------|
A-|--5--3--1---3-3--1--------|
E-|--------------------------|

Interlude:

E-|-----------------------|-----------------------|-----------------------------|
B-|-----------------------|-----------------------|-----------------------------|
G-|--7-7--5----7-7--5--7--|--7-7--5----7-7--5--7--|--7-7--5--5-7-----7-7--5--7--|
D-|-----------------------|-----------------------|-----------------------------|
A-|-----------------------|-----------------------|-----------------------------|
E-|-----------------------|-----------------------|-----------------------------|

             You can almost not hear that note
E-|------------------------|---------------------|----------------------------|
B-|------------------------|---------------------|----------------------------|
G-|--7-7--5-(7)--7-7--5-7--|--7-7-7-7--7----5-5--|--7-7-7-7--7----5----7-5-7--|
D-|------------------------|---------------------|----------------------------|
A-|------------------------|---------------------|----------------------------|
E-|------------------------|---------------------|----------------------------|


E-|---------------------|----------------------------|--------------------------|
B-|---------------------|----------------------------|--9b--7b------------------|
G-|--7-7-7-7--7----5-5--|--7-7-7-7--7----5----7-5-7--|--9b--7b--7-7--5--7--5-7--|
D-|---------------------|----------------------------|--------------------------|
A-|---------------------|----------------------------|--------------------------|
E-|---------------------|----------------------------|--------------------------|


E-|---------------------|--------------------------|
B-|--9b--7b-------------|--9b--7b------------------|
G-|--9b--7b--7-7--5--7--|--9b--7b--7-7--5--7--5-7--|
D-|---------------------|--------------------------|
A-|---------------------|--------------------------|
E-|---------------------|--------------------------|

its easy and fun to play with a bass player if u have one... later. ill submit more RHCP songs soon.
            
Submit corrections

comments powered by Disqus
↑ Back to top | Red Hot Chili Peppers Tabs for Brothers Cup. Lyrics for acoustic guitar and electric guitar. Tablatures and chords are parodies/interpretations of the original songs. You may use it for private study, scholarship, research or language learning purposes only