>
 >
Soul To Squeeze 2

Soul To Squeeze 2 Guitar Tabs

Red Hot Chili Peppers - Soul To Squeeze 2 chords, tabs, tablatures, lyrics

Guitar lessons | Add/correct | Request | Top 50 tabs Artists:  A B C D E F G H I J K L M N O P Q R S T U V W X Y Z 0-9

Soul To Squeeze 2 Guitar Tabs – Red Hot Chili Peppers

CD, Sheet music, Poster

Do you like Soul To Squeeze 2? Share with your friends now
Bass TabsTabsTabs v2Tabs v3



Intro:


e-|---------------------------------|----------------------------------------|-
B-|---------------)\----------------|------------------------------5---------|-
G-|--------2-----4----2----------2--|-------2-----------2-----4/6-----6\4p2--|-
D-|-----2-------------------2h4-----|----2--------2--------------------------|-
A-|--0--------0----------0----------|-0--------0-----0-----0-----------------|-
E-|---------------------------------|----------------------------------------|-


e-|---------------------------------|--------------------------------------|-
B-|---------------)\----------------|--------------------------------------|-
G-|--------2-----4----2----------2--|--------2-----------------------------|-
D-|-----2-------------------2h4-----|-----2--------2-----2--------2--------|-
A-|--0--------0----------0----------|--0--------0-----0------)----------)--|-
E-|---------------------------------|-----------------------3----------3---|-


e-|---------------------------------|------------------------------5---------|-
B-|---------------)\----------------|----------------------------------------|-
G-|--------2-----4----2----------2--|-------2-----------2-----4/6-----6\4p2--|-
D-|-----2-------------------2h4-----|----2--------2--------------------------|-
A-|--0--------0----------0----------|-0--------0-----0-----0-----------------|-
E-|---------------------------------|----------------------------------------|-

                                                                             
e-|---------------------------------|------------------------------------|-
B-|---------------)\----------------|----------2--x--2--2--x--2----------|-
G-|--------2-----4----2----------2--|----------2--x--2--2--x--2----------|-
D-|-----2-------------------2h4-----|----------2--x--2--2--x--2----------|-
A-|--0--------0----------0----------|--0--0----0-----0--0-----0-----)----|-
E-|---------------------------------|------------------------------3-----|-
                                        


Verse:


     F    C    Dm Bb/Dm  Dm   F     C    Gm

e-|--1-----------------------------------3---5-5--|
B-|--1----5----6----6----6----10----5----3---3-3--|
G-|--2----5----7----7----7----10----5----3---3-3--|
D-|--3----5----7----7----7----10----5----5---3-3--|
A-|--3----3----5----x----5----8-----3-------------|
E-|--1--------------6-----------------------------|



with variations:


     F              C                    Dm         Bb/Dm
e-|-------1---------------------------|----------------------------|-
B-|-------1--------------5--5---------|-------6--6--6------6--6----|-
G-|-------2--------------5--5---------|-------7--7--7------7--7----|-
D-|-------3--------------5--5---------|-------7--7--7------7--7----|-
A-|-------3---------3----3--3----5/7--|--5----5--5--x------x--x----|-
E-|--1---------3/5--------------------|-------------6------6--6----|-

     Dm              F                     C          Gm   
e-|-------------------------------------|-------------3----5--5----|-
B-|--6--6-6-6-6-6-x-10--10-10-10-10--5--|--5-5-5-5----3----3--3----|-
G-|--7--7-7-7-7-7-x-10--10-10-10-10--5--|--5-5-5-5----3----3--3----|-
D-|--7--7-7-7-7-7-x-10--10-10-10-10--5--|--5-5-5-5----5----5--5----|-
A-|--5--5-5-5-5-5-x--8---8--8--8--8--3--|--3-3-3-3-----------------|-
E-|-------------------------------------|--------------------------|-



Chorus:

     F                                  C 
e-|----------------------------------|----------------------------------|-
B-|--10------------------------------|---8------------------------------|-
G-|--10------------------------------|---9------------------------------|-
D-|--10------------------------------|--10------------------------------|-
A-|----------------------------------|----------------------------------|-
E-|----------------------------------|----------------------------------|-
 
     Dm9                                Bb
e-|--0-------------------------------|----------------------------------|-
B-|--6-------------------------------|--6-------------------------------|-
G-|--7-------------------------------|--7-------------------------------|-
D-|--7-------------------------------|--8-------------------------------|-
A-|----------------------------------|----------------------------------|-
E-|----------------------------------|----------------------------------|-

     F                                  C
e-|----------------------------------|----------------------------------|-
B-|--10------------------------------|---8------------------------------|-
G-|--10------------------------------|---9------------------------------|-
D-|--10------------------------------|--10------------------------------|-
A-|----------------------------------|----------------------------------|-
E-|----------------------------------|----------------------------------|-

     Dm9                                Am    Bb
e-|--0-------------------------------|----------------------------------|-
B-|--6-------------------------------|--5--5--6-------------------------|-
G-|--7-------------------------------|--5--5--7-------------------------|-
D-|--7-------------------------------|--7--7--8-------------------------|-
A-|----------------------------------|----------------------------------|-
E-|----------------------------------|----------------------------------|-



Guitar Solo:


e-|-------------------------------|---------------------------------|-
B-|------)-----------------)------|---------------------------------|-
G-|----12--12--10--12----12---10--|--(10~~~~~)----------------------|-
D-|-------------------------------|---------------------------------|-
A-|-------------------------------|---------------------------------|-
E-|-------------------------------|---------------------------------|-


e-|------------------------------|---------------------------------|-
B-|----10--10--10--13----10------|---------------------------------|-
G-|--------------------------12--|----10---------10~~~~~-----------|-
D-|------------------------------|----------/12--------------------|-
A-|------------------------------|---------------------------------|-
E-|------------------------------|---------------------------------|-


e-|--------------------------------|---------------------------------|-
B-|------)-----------------)----)--|---------------------------------|-
G-|----12--12--10--12----12---10---|----10---------------------------|-
D-|--------------------------------|----------12~~~~~----------------|-
A-|--------------------------------|---------------------------------|-
E-|--------------------------------|---------------------------------|-


e-|------------------)\------------|---------------------------------|-
B-|----10--10--10--13------10--10--|---------------------------------|-
G-|--------------------------------|----12----10----9----------------|-
D-|--------------------------------|---------------------------------|-
A-|--------------------------------|---------------------------------|-
E-|--------------------------------|---------------------------------|-



Bridge:

     Dm         C               Am
e-|--------------------------|-----------------------------------|-
B-|--6---6--x-x-5----5--5----|--1-1-1-1-1-1-1-1-1-1-1-1-1-1-1-1--|-
G-|--7---7--x-x-5----5--5----|--2-2-2-2-2-2-2-2-2-2-2-2-2-2-2-2--|-
D-|--7---7--x-x-5----5--5----|--2-2-2-2-2-2-2-2-2-2-2-2-2-2-2-2--|-
A-|--5---5--x-x-3----3--3----|--0-0-0-0-0-0-0-0-0-0-0-0-0-0-0-0--|-
E-|--------------------------|-----------------------------------|-


e-|--------------------------|-----------------------------------|-
B-|--6---6--x-x-5----5--5----|--1-1-1-1-1-1-1-1-1-1-1-1-1-1-1-1--|-
G-|--7---7--x-x-5----5--5----|--2-2-2-2-2-2-2-2-2-2-2-2-2-2-2-2--|-
D-|--7---7--x-x-5----5--5----|--2-2-2-2-2-2-2-2-2-2-2-2-2-2-2-2--|-
A-|--5---5--x-x-3----3--3----|--0-0-0-0-0-0-0-0-0-0-0-0-0-0-0-0--|-
E-|--------------------------|-----------------------------------|-


e-|--------------------------|-----------------------------------|-
B-|--6---6--x-x-5----5--5----|--1-1-1-1-1-1-1-1-1-1-1-1-1-1-1-1--|-
G-|--7---7--x-x-5----5--5----|--2-2-2-2-2-2-2-2-2-2-2-2-2-2-2-2--|-
D-|--7---7--x-x-5----5--5----|--2-2-2-2-2-2-2-2-2-2-2-2-2-2-2-2--|-
A-|--5---5--x-x-3----3--3----|--0-0-0-0-0-0-0-0-0-0-0-0-0-0-0-0--|-
E-|--------------------------|-----------------------------------|-


e-|--------------------------|-----------------------------------|-
B-|--6---6--x-x-5----5--5----|--1--1--3--------------------------|-
G-|--7---7--x-x-5----5--5----|--2--2--3--------------------------|-
D-|--7---7--x-x-5----5--5----|--2--2--3--------------------------|-
A-|--5---5--x-x-3----3--3----|--0--0--1--------------------------|-
E-|--------------------------|-----------------------------------|-



Last Chorus:

     F                                         C 
e-|-----------------------------------------|-----------------------------------------|-
B-|--10----10---10--10----10-10--10--10-10--|---8-----8----8---8-----8--8---8---8--8--|-
G-|--10----10---10--10----10-10--10--10-10--|---9-----9----9---9-----9--9---9---9--9--|-
D-|--10----10---10--10----10-10--10--10-10--|--10----10---10--10----10-10--10--10-10--|-
A-|-----------------------------------------|-----------------------------------------|-
E-|-----------------------------------------|-----------------------------------------|-
 
     Dm9                              Bb
e-|--0----0---0--0----0-0--0--0-0--|--------------------------------|-
B-|--6----6---6--6----6-6--6--6-6--|--6----6---6--6----6-6--6--6-6--|-
G-|--7----7---7--7----7-7--7--7-7--|--7----7---7--7----7-7--7--7-7--|-
D-|--7----7---7--7----7-7--7--7-7--|--8----8---8--8----8-8--8--8-8--|-
A-|--------------------------------|--------------------------------|-
E-|--------------------------------|--------------------------------|-
                                                              (x3)

     F                                         C 
e-|-----------------------------------------|-----------------------------------------|-
B-|--10----10---10--10----10-10--10--10-10--|---8-----8----8---8-----8--8---8---8--8--|-
G-|--10----10---10--10----10-10--10--10-10--|---9-----9----9---9-----9--9---9---9--9--|-
D-|--10----10---10--10----10-10--10--10-10--|--10----10---10--10----10-10--10--10-10--|-
A-|-----------------------------------------|-----------------------------------------|-
E-|-----------------------------------------|-----------------------------------------|-
 
     Dm9                              Am    Bb 
e-|--0----0---0--0----0-0--0--0-0--|--------------------------------|-
B-|--6----6---6--6----6-6--6--6-6--|--5--5--6-----------------------|-
G-|--7----7---7--7----7-7--7--7-7--|--5--5--7-----------------------|-
D-|--7----7---7--7----7-7--7--7-7--|--7--7--8-----------------------|-
A-|--------------------------------|--------------------------------|-
E-|--------------------------------|--------------------------------|-

     F                                   
e-|----------------------------------|-
B-|--1-------------------------------|-
G-|--2-------------------------------|-
D-|--3-------------------------------|-
A-|----------------------------------|-
E-|----------------------------------|-





Comments


Popular Red Hot Chili Peppers tabs & chords
Brothers Cup 3 Bass Tabs
Deep Kick Bass Tabs
Ethiopia Bass Tabs
The Zephyr Song Bass Tabs
Even You Brutus Chords
Bob Tabs
Fortune  Faded 1 Tabs
I Could Die For You Tabs
My Friends Tabs
On Mercury 2 Tabs


Song lyrics



↑ Back to top | Tablatures and chords are parodies/interpretations of the original songs. You may use it for private study, scholarship, research or language learning purposes only
© 2014 AZChords.com Contact us | Privacy policy | DMCA | Add/correct tabs | Request tabs | Top 50 tabs